» » »

Green Day, 8th Avenue Serenade Tabs (ver.1)

Artists:  A B C D E F G H I J K L M N O P Q R S T U V W X Y Z # 

8th Avenue Serenade Tabs (ver.1)

Green Day Tabs
Rating:
0/5 (0 votes)
8th Avenue Serenade lessons Tabs too difficult? Try these video lessons and learn fast
                Band: Green Day

I'm pretty sure this tab is at least 99% accurate, sounds good to me at least!
I hope you guys enjoy it, please rate, and comment! Thanks!
...Or comment corrections if you think something's incorrect.

Update 17/12/2012:
Thanks to the first guy who commented who pointed out a little typo I
made in a few parts of the tab!

Intro:
 
e|------------------------------------|
B|------------------------------------|
G|-11-11-9---11---14---11---9---------|
D|--0--0-0-0--0-0--0-0--0-0-0-0-11-11-|
A|-------------------------------0--0-|
E|------------------------------------|x4(After 2nd time, pause, 
                                         then bass and drums come in)


Verse:

e|-------------------------------------------0-------------------------------------|
B|-------------------------------------------0-------------------------------------|
G|-7-7777777---------------------------------0---------------7-777777777777777-----|
D|-7-7777777-7-7777777-5-555555555555555-2-2222222-5-5555555-7-777777777777777-7-7-|
A|-5-5555555-7-7777777-5-555555555555555-2-2222222-5-5555555-5-555555555555555-7-7-|
E|-----------5-5555555-3-333333333333333-0-0000000-3-3333333-------------------5-5-|x2

e|------------------------------------|
B|------------------------------------|
G|-11-11-9---11---14---11---9---------|
D|--0--0-0-0--0-0--0-0--0-0-0-0-11-11-|
A|-------------------------------0--0-|
E|------------------------------------|x4

e|-------------------------------------------0-------------------------------------|
B|-------------------------------------------0-------------------------------------|
G|-7-7777777---------------------------------0---------------7-777777777777777-----|
D|-7-7777777-7-7777777-5-555555555555555-2-2222222-5-5555555-7-777777777777777-7-7-|
A|-5-5555555-7-7777777-5-555555555555555-2-2222222-5-5555555-5-555555555555555-7-7-|
E|-----------5-5555555-3-333333333333333-0-0000000-3-3333333-------------------5-5-|

e|-------------------------------------------0-------------------------------------|
B|-------------------------------------------0-------------------------------------|
G|-7-7777777---------------------------------0---------------7-7777777777777777777-|
D|-7-7777777-7-7777777-5-555555555555555-2-2222222-5-5555555-7-7777777777777777777-|
A|-5-5555555-7-7777777-5-555555555555555-2-2222222-5-5555555-5-5555555555555555555-|
E|-----------5-5555555-3-333333333333333-0-0000000-3-3333333-----------------------|

Chorus:

e|-----0---------------------------------|
B|-----0---------------------------------|
G|-----0---------------7-777777777777777-|
D|-2-2222222-5-5555555-7-777777777777777-|
A|-2-2222222-5-5555555-5-555555555555555-|
E|-0-0000000-3-3333333-------------------|x2

e|-----0---------------|
B|-----0---------------|
G|-----0---------------|
D|-2-2222222-5-5555555-|
A|-2-2222222-5-5555555-|
E|-0-0000000-3-3333333-|x3

Post-Chorus:

e|------------------------------------|
B|------------------------------------|
G|-11-11-9---11---14---11---9---------|
D|--0--0-0-0--0-0--0-0--0-0-0-0-11-11-|
A|-------------------------------0--0-|
E|------------------------------------|x4

Bridge (or whatever you want to call it):

e|---------------------------------------------------------------------7-000000-|
B|------------------------------------12-12121212--1312-12121212121212-8-888888-|
G|-11-11-9---11-----------------------12-12121212121212-12121212121212-9-999999-|
D|--0--0-0-0--0-0-0--11-11-9---11-----12-12121212121212-12121212121212-9-999999-|
A|--------------------0--0-0-0--0-0-0-------------------------------------------|
E|------------------------------------------------------------------------------|

e|---------------------------------------------------|
B|-12-12121212121212---------------------------------|
G|-12-12121212121212-11-11-9---11---14-11-11-9-------|
D|-12-12121212121212--0--0-0-0--0-0--0--0--0-0-11-11-|
A|----------------------------------------------0--0-|
E|---------------------------------------------------|

e|---------------------------------------------------------------------7-000000-|
B|------------------------------------12-12121212--1312-12121212121212-8-888888-|
G|-11-11-9---11-----------------------12-12121212121212-12121212121212-9-999999-|
D|--0--0-0-0--0-0-0--11-11-9---11-----12-12121212121212-12121212121212-9-999999-|
A|--------------------0--0-0-0--0-0-0-------------------------------------------|
E|------------------------------------------------------------------------------|

e|----------------------------------------------|
B|-12-12121212121212----------------------------|
G|-12-12121212121212-11-11-9---11---14-11~~-----|
D|-12-12121212121212--0--0-0-0--0-0--0--0-------|
A|----------------------------------------------|
E|------------------------------------------12\-|

Chorus:

e|-----0---------------------------------|
B|-----0---------------------------------|
G|-----0---------------7-777777777777777-|
D|-2-2222222-5-5555555-7-777777777777777-|
A|-2-2222222-5-5555555-5-555555555555555-|
E|-0-0000000-3-3333333-------------------|x2

e|-----0---------------|
B|-----0---------------|
G|-----0---------------|
D|-2-2222222-5-5555555-|
A|-2-2222222-5-5555555-|
E|-0-0000000-3-3333333-|x3

Outro:

e|------------------------------------|
B|------------------------------------|
G|-11-11-9---11---14---11---9---------|
D|--0--0-0-0--0-0--0-0--0-0-0-0-11-11-|
A|-------------------------------0--0-|
E|------------------------------------|x4

End with:

e|----|
B|----|
G|-7\-|
D|-7\-|
A|-5\-|
E|----|

************************************

| /   slide up
| \   slide down
| h   hammer-on
| p   pull-off
| ~   vibrato
| +   harmonic
| x   Mute note
| b   Bend
| pb  Pre-bend
| br  Bend release
| pbr Pre-bend release
| brb Bend release bend

************************************
            
Submit corrections

comments powered by Disqus
↑ Back to top | Green Day Tabs for 8th Avenue Serenade. Lyrics for acoustic guitar and electric guitar. Tablatures and chords are parodies/interpretations of the original songs. You may use it for private study, scholarship, research or language learning purposes only