» » »

Goldfinger, Spokesman Tabs (ver.1)

Artists:  A B C D E F G H I J K L M N O P Q R S T U V W X Y Z # 

Spokesman Tabs (ver.1)

Goldfinger Tabs
Rating:
0/5 (0 votes)
Spokesman lessons Tabs too difficult? Try these video lessons and learn fast
                This is basically like all the other tabs BUT! i added some things they had missed out.

|  Legend                                      |
| x - Scratch                                  |
| * - Palm mute                                |
| % - Dont Let Ring                            |
| / and \ - Slide                              |
| /\- Pick Slide                               |
| : - Let ring                                 |
| h - hammer on                                |
| p - pull off                                 |


  [Intro]
e|---------------------------|
B|---------------------------|
G|-44----44----4-----44----4-| x1
D|-44-44-44-44-4-4---44-44-4-|
A|-22-44-22-44-2-4---22-44-2-|
E|----22----22---2------22---|

  [Verse 1]
e|---------------------------------------|
B|---------------------------------------|
G|-44444444----------66666666-------4444-| x2
D|-44444444-44444444-66666666-22-44-4444-|
A|-22222222-44444444-44444444-22-44-2222-|
E|----------22222222----------00-22------|

Pre-Chorus
e|---------------------|
B|---------------------|
G|-99-88-6666-66666666-| x1
D|-99-88-6666-66666666-|
A|-77-66-4444-44444444-|
E|---------------------|

Chorus
e|----------------------------------------------------------------xxxxx-|
B|----------------------------------------------------------------xxxxx-| 
G|-------------------77777777-44444444-------------------77777777-xxxxx-| x2
D|-55555555-77777777-77777777-44444444-55555555-77777777-77777777-xxxxx-|
A|-55555555-77777777-55555555-22222222-55555555-77777777-55555555-xxxxx-|
E|-33333333-55555555-------------------33333333-55555555----------xxxxx-|

Then: [Intro] x1  

[Verse 2]
e|---------------------------------------|
B|---------------------------------------| x1
G|-44444444----------66666666-------4444-|
D|-44444444-44444444-66666666-22-44-4444-|
A|-22222222-44444444-44444444-22-44-2222-|
E|----------22222222----------00-22------|
pm ******** ******** ********  *  *  ***

  [Verse 2 Cont.]
e|---------------------------------------|
B|---------------------------------------| x1
G|-44444444----------66666666-------4444-|
D|-44444444-44444444-66666666-22-44-4444-|
A|-22222222-44444444-44444444-22-44-2222-|
E|----------22222222----------00-22------|
pm  * * * *  * * * * 

Then:  [Chorus] x2 - [Intro] x4 - [Chorus] x3 - [Intro] x2


Lyrics:

[Verse]
What happened to dignity 
Did it go away again? 
Just like a worn out trend? 
Will I still defend emotions? 

What happened to honesty? 
I don't see it on the Top Ten 
I only see it in what has been 
Cuz I still defend devotion 

[Pre Chorus]
Am I alone? 

[Chorus]
Don't wanna rest 
I don't wanna breathe 
When I wanna hear about life 
Don't wanna hear a spokesman 

I don't wanna test 
I want to believe 
The god *** singer wrote the song 
Don't wanna hear a spokesman 

[Verse 2]
What happened to integrity 
I don't see it on MTV 
All I see is choreography 
And I'll never be a dancer 

What happened to puberty? 
Bad skin and insecurity? 
And who the f*** is Felicity? 
Cuz I got problems of my own 

[Pre Chorus]
Am I alone? 

[Chorus]
Don't wanna rest 
I don't wanna breathe 
When I wanna hear about life 
Don't wanna hear a spokesman 

I don't wanna test 
I want to believe 
The god *** singer wrote the song 
Don't wanna hear a spokesman 

[Chorus]
Don't wanna rest
I don't wanna breathe 
When I wanna hear about life 
Don't wanna hear a spokesman 

I don't wanna test 
I want to believe  
The god *** singer wrote the song 
Don't wanna hear a spokesman 

[Chorus]
I Don't wanna rest 
And don't wanna breathe 
When I wanna hear about life 
Don't wanna hear a spokesman
            
Submit corrections

comments powered by Disqus
↑ Back to top | Goldfinger Tabs for Spokesman. Lyrics for acoustic guitar and electric guitar. Tablatures and chords are parodies/interpretations of the original songs. You may use it for private study, scholarship, research or language learning purposes only