» » »

Goldfinger, Spokesman Tabs (ver.2)

Artists:  A B C D E F G H I J K L M N O P Q R S T U V W X Y Z # 

Spokesman Tabs (ver.2)

Goldfinger Tabs
Rating:
0/5 (0 votes)
Hard to play? Try these video lessons and learn fast.
                GOLDFINGER – spokesman

Intro
E|----------------------------------------------------------------
B|----------------------------------------------------------------
G|-44----44----4-----44----4--------------------------------------
D|-44-44-44-44-4-4---44-44-4--------------------------------------
A|-22-44-22-44-2-4---22-44-2--------------------------------------
E|----22----22---2------22----------------------------------------

Verse
E|----------------------------------------------------------------
B|----------------------------------------------------------------
G|-44444444----------66666666-------4444--------------------------
D|-44444444-44444444-66666666-22-44-4444--------------------------
A|-22222222-44444444-44444444-22-44-2222--------------------------
E|----------22222222----------00-22-------------------------------

Pre-Chorus
E|----------------------------------------------------------------
B|----------------------------------------------------------------
G|-99-88-6666-66666666--------------------------------------------
D|-99-88-6666-66666666--------------------------------------------
A|-77-66-4444-44444444--------------------------------------------
E|----------------------------------------------------------------

Chorus
E|----------------------------------------------------------------
B|----------------------------------------------------------------
G|-------------------77777777-44444444-------------------77777777-
D|-55555555-77777777-77777777-44444444-55555555-77777777-77777777-
A|-55555555-77777777-55555555-22222222-55555555-77777777-55555555-
E|-33333333-55555555-------------------33333333-55555555----------

Chorus (Continued)
E|-----------
B|-----------
G|-----------
D|-22222222--
A|-22222222--
E|-00000000--
 Pm. . . . .

ORDER:
Intro (x1)
Verse (x2)
Pre-Chorus (x1)
Chorus (x2)
Intro (x1)
Verse (palm-muted) (x2)
Pre-Chorus (x1)
Chorus (x2)
Intro (x4)
Chorus (x3)
Intro (x2)
            

comments powered by Disqus
↑ Back to top | Goldfinger Tabs for Spokesman. Lyrics for acoustic guitar and electric guitar. Tablatures and chords are parodies/interpretations of the original songs. You may use it for private study, scholarship, research or language learning purposes only