» » »

Spokesman Tabs (ver.3)

Artists:  A B C D E F G H I J K L M N O P Q R S T U V W X Y Z # 

Spokesman Tabs (ver.3)

Goldfinger
Rating:
0/5 (0 votes)

Hard to play? Try these video lessons and learn fast.
                Intro   
e|-----------------------|
B|-----------------------|
G|-4---4---4---4---4-----|
D|-4-2-4-2-4-2-4-2-4-----|
A|-2-2-2-2-2-2-2-2-2-----|
E|---0---0---0---0-------|

Verse
e|----------------------------------------|
B|----------------------------------------|
G|-4444444---------6666666-------44444----|
D|-4444444-4444444-6666666-22-44-44444----|
A|-2222222-4444444-4444444-22-44-22222----|
e|---------2222222---------00-22----------|

Pre Chorus
e|-------------------XXX-------|
B|-------------------XXX-------|
G|-2-2-2-------------XXX-------|
D|-2-2-2-------------XXX-------|
A|-0-0-0-44-55-77-55-XXX-------|
E|-------------------XXX-------|

Chorus
e|---------------------------------------------------------------------|
B|---------------------------------------------------------------------|
G|----------------7777777777-444444-----------------7777777------------|
D|-555555-7777777-7777777777-444444-5555555-7777777-7777777-7777777----|
A|-555555-7777777-5555544444-222222-5555555-7777777-5555555-7777777----|
E|-333333-5555555-------------------3333333-5555555---------5555555----|
						   *******
            
Hard to play? Try these video lessons and learn fast. | Correct




comments powered by Disqus
↑ Back to top | Tablatures and chords are parodies/interpretations of the original songs. You may use it for private study, scholarship, research or language learning purposes only