» » »

End Of The World Tabs (ver.7)

Artists:  A B C D E F G H I J K L M N O P Q R S T U V W X Y Z # 

End Of The World Tabs (ver.7)

God Forbid
Rating:
1/5 (2 votes)

Tabs too difficult? Try these video lessons and learn fast.
                (Intro)
this is my first tab so bite me

 god forbib
  end of the world
 drop d tuning

 its easy!!         guitar 1

       pm]---------     -----------     ----------   ------------------------|
d-2^p0--00000000-00-2^p0--0000000-00-4^p0--0000000-00-6^p0-0000000-00-8^p0---|
a-----5-00000000-00-----4-0000000-00-----7-0000000-00-----9---------------11-|
d-------00000000-00-------0000000-00-------0000000-00------------------------|
g----------------------------------------------------------------------------| 2x
b----------------------------------------------------------------------------|
e----------------------------------------------------------------------------|

d----------0~----------<<<<<<<---------------|
a----------5~----------<<<<<<<---------------|
d----------7~----------<<<<<<<---------------|
g----------7~----------<<<<<<<---------------|
b----------------------<<<<<<<---------------|
e----------------------<<<<<<<---------------|

                      guitar2
pm-------------------------------------------------|
d00000000000000000000000000000000------------------|
a00000000000000000000000000000000------------------|
d00000000000000000000000000000000------------------|  2x
g--------------------------------------------------|
b--------------------------------------------------|
e--------------------------------------------------|
            
Tabs too difficult? Try these video lessons and learn fast.




comments powered by Disqus
↑ Back to top | Tablatures and chords are parodies/interpretations of the original songs. You may use it for private study, scholarship, research or language learning purposes only