» » »

End Of The World Tabs

Artists:  A B C D E F G H I J K L M N O P Q R S T U V W X Y Z # 

End Of The World Tabs

(ver. 1)
God Forbid Tabs
 Rating:
3.2/5 (20 votes)
    End Of The World lessons Tabs too difficult? Try these video lessons and learn fast
                Band : God Forbid


p - pull off
< - pickscr*pe
^ - half bend
^^ - bend up and down really fast
.. - Palm mute
~ - let note ring

Intro :

Clean;

D|----------------------------------------------------5-5-----|
A|-----------------------------------------------------4------|
F|---10-9--7-6-7-7--12-12-10^---10-9--7-6-7-7-3-3-5^----------|
C|----0-0--0-0-0-0---0--0--0-----0-0--0-0-0-0-0-0-0-----------|
G|------------------------------------------------------------|
C|------------------------------------------------------------|


|-----------------------------------------------------------|
|-----------------------------------------------------------|
|-----------------------------------------------------------| 
        
Submit corrections

↑ Back to top | God Forbid Tabs for End Of The World. Lyrics for acoustic guitar and electric guitar. Tablatures and chords are parodies/interpretations of the original songs. You may use it for private study, scholarship, research or language learning purposes only