>
 >
End Of The World 3

End Of The World 3 Guitar Tabs

God Forbid - End Of The World 3 chords, tabs, tablatures, lyrics

Guitar lessons | Add/correct | Request | Top 50 tabs Artists:  A B C D E F G H I J K L M N O P Q R S T U V W X Y Z 0-9

End Of The World 3 Guitar Tabs – God Forbid

CD, Sheet music, Poster

Do you like End Of The World 3? Share with your friends now
TabsTabs v2Tabs v3
-------------------------------------------------------------------------------
                             End of The World (Solo)  God Forbid
-------------------------------------------------------------------------------
UPDATE: Rearranged a few things, used Guitar Pro to try and make sure things were in
the first bar was changed to around 160 bpm then afterwards it goes up to about 182bpm. I
the hammer-on/pull-off parts too late last time, that's been fixed, and it's more in 
with the song. The last part is still just what I play though. Thanks.
                  |-----5-----|
      Q    E   S  S  S  S  S  S  S  Q
D||--------------12-14-16-14-12-----------|
A||-----------12----------------12--------|
F||--14----L-----------------------14~----|
C||---------------------------------------|
G||---------------------------------------|
C||---------------------------------------|


        PM PM    PM PM
  E  E  E  E  E  E  E   E
---------------------------|
---------------------------|
--L--L---------------------|
--------------9--------10--|
--------7--7-----7--7------|
---------------------------|


  PM PM    PM     PM
  E  E  E  E   E  E  S   S  E
-------------------------------|
-------------------------------|
-------------------------------|
--------9-----10-----9h-10p-9--|
--7--7-----7------7------------|
-------------------------------|


   E    E  S   S  E  E   E  E  E
----------------------------------|
----------------------------------|
----------------------------------|
---L--/10--9h-10p-9--9--10--7--9--|
----------------------------------|
----------------------------------|


                           PM PM     PM PM     PM PM
  E  E  E  E  H            E  E   E  E  E   E  E  E
------------------------|----------------------------|
------------------------|--------10--------13--------|
------------------------|--9--9------9--9------9--9--|
--7---------------------|----------------------------|
-----8--7--5--7~--------|----------------------------|
------------------------|----------------------------|


      PM     PM
   E  E   E  E   S   S   Q      E
-----------------------------------|
--12-----13-----12h-13p-12----/13--|
------9------9---------------------|
-----------------------------------|
-----------------------------------|
-----------------------------------|


   S   S   E   E   E   E   E  E   E
-------------------------------------|
--12h-13p-12--12--13--10--12--9------|
---------------------------------10--|
-------------------------------------|
-------------------------------------|
-------------------------------------|


          SH
  E  E    H         T T T T T T T T
------------------------------------|
------------------------------------|
--9--7--<>9~--------9-9-9-9-9-9-9-9-|
------------------------------------|
------------------------------------|
------------------------------------|


  T T T T T T T T T T T T T T T T T T T T T T T T  Q
--------------------------------------------------------|
--------------------------------------------------------|
--9-9-9-9-9-9-9-9-9-9-9-9-9-9-9-9-9-9-9-9-9-9-9-9-10----|
--------------------------------------------------------|
--------------------------------------------------------|
--------------------------------------------------------|


  T T T T T T T T T T T T T T T T T T T T T T T T  Q
--------------------------------------------------------|
--9-9-9-9-9-9-9-9-9-9-9-9-9-9-9-9-9-9-9-9-9-9-9-9-10----|
--------------------------------------------------------|
--------------------------------------------------------|
--------------------------------------------------------|
--------------------------------------------------------|


   H          E.   E.   E
----------------------------|
--13~--------13---12---10S--|
----------------------------|
----------------------------|
----------------------------|
----------------------------|


   E   H.             S  S
---------------------------|
---L--12~------------12-12-|
---------------------------|
---------------------------|
---------------------------|
---------------------------|


   S  S  S  S  S  S  S  S  S  S  S  S  S  S  S  S
--------12-14-12-16-14-12-------------------------|
--13-12-------------------12-12-13-12-13-15-13-17-|
--------------------------------------------------|
--------------------------------------------------|
--------------------------------------------------|
--------------------------------------------------|


   S  S  S  S  S  S  S  S  S  S  S  S  S  S  S  S
--------------------12-14-12-16-14-12-------------|
--15-13-12-12-13-12-------------------12-12-13-12-|
--------------------------------------------------|
--------------------------------------------------|
--------------------------------------------------|
--------------------------------------------------|


   S  S  S  S  S  S  S  S  S  S  S  S  S  S  S  S
--------------------------------------------------|
--13-15-13-17-15-13-15-17-15-13-13-15-13-12-12-13-|
--------------------------------------------------|
--------------------------------------------------|
--------------------------------------------------|
--------------------------------------------------|


                                      SH
   S  S  S  S  S S S  S S S S S S S   E
-----------------------------------------|
--12-10-10-12-10-9-9-10-9-7-7-9-7-5-<>3--|
-----------------------------------------|
-----------------------------------------|
-----------------------------------------|
-----------------------------------------|


  W                   W
-------------------|-------------------|
--L----------------|--L----------------|
-------------------|-------------------|
-------------------|-------------------|
-------------------|-------------------|
-------------------|-------------------|


    \1/
    W                   W
---------------------|-------------------|
----L----------------|-------------------|
---------------------|-------------------|
---------------------|-------------------|
---------------------|-------------------|
--<>5----------------|--L----------------|


                        \1/
  W                     W
-------------------|---------------------|
-------------------|---------------------|
-------------------|---------------------|
-------------------|--<>5----------------|
-------------------|---------------------|
--L----------------|----L----------------|


  W                   W
-------------------|-------------------|
-------------------|-------------------|
-------------------|-------------------|
--L----------------|--L----------------|
-------------------|-------------------|
--L----------------|--L----------------|


  W
-------------------||
-------------------||
-------------------||
--L----------------||
-------------------||
--L----------------||


Duration Legend
---------------
W - whole
H - half
Q - quarter
E - 8th
S - 16th
T - 32nd
X - 64th
. - note dotted
|-n-|  - n-tuplets


Tablature Legend
----------------
L - tied note
x - dead note
g - grace note
(n) - ghost note
> - accentuded note
NH - natural harmonic
AH - artificial harmonic
TH - tapped harmonic
SH - semi harmonic
PH - pitch harmonic
h - hammer on
p - pull off
b - bend
br - bendRelease
pb - preBend
pbr - preBendRelease
brb - bendReleaseBend
\n/ - tremolo bar dip
\n - tremolo bar dive
-/n - tremolo bar Release up
/n\ - tremolo bar inverted dip
/n - tremolo bar return
-\n - tremolo bar Release down
S - shift slide
s - legato slide
/ -  slide into from below or out of upwards
\ -  slide into from above or out of downwards
~ - vibrato
W - wide vibrato
tr - trill
TP - tremolo picking
T - tapping
S - slap
P - pop
< - fade in
^ - brush up
v - brush down





Comments


Popular God Forbid tabs & chords
Better Days Bass Tabs
Divide My Destiny Bass Tabs
Reflection Of The Past Bass Tabs
A Reflection Of The Past Tabs
Antihero Tabs
Century Fades Tabs
Crucify Your Beliefs Intro 1 Tabs
Crucify Your Beliefs Intro 2 Tabs
End Of The World Intro 1 Tabs
Precious Lie Intro 1 Tabs


Song lyrics



↑ Back to top | Tablatures and chords are parodies/interpretations of the original songs. You may use it for private study, scholarship, research or language learning purposes only
© 2014 AZChords.com Contact us | Privacy policy | DMCA | Add/correct tabs | Request tabs | Top 50 tabs