» » »

God Forbid, End Of The World Tabs (ver.2)

Artists:  A B C D E F G H I J K L M N O P Q R S T U V W X Y Z # 

End Of The World Tabs (ver.2)

God Forbid Tabs
 Rating:
2.7/5 (7 votes)
End Of The World lessons Tabs too difficult? Try these video lessons and learn fast
1
                (Intro)
Band: God Forbid

Intro
^ =bend
/ =slide

Clean
D|--------------------------------------|
A|--------------------------------------|
F|-10-9-7-6-7-7-7/12-12-9^-9------------|
C|--------------------------------------|
G|--------------------------------------|
C|--------------------------------------|

D|------------------------------|
A|------------------------------|
F|-10-9-7-6-7-7-3-3/6-6---------|
C|------------------------------|
G|------------------------------|
C|------------------------------|

Distorted part
D|---------------------------------|
A|---------------------------------|
F|-10-9-7-6-7-7-11-12-9------------|
C|---------------------------------|
G|---------------------------------|
C|---------------------------------|

D|----------------------------|
A|----------------------------|
F|-10-9-7-6-7-7-3-3/6---------|
C|----------------------------|
G|----------------------------|
C|----------------------------|

This is my first tab.please give feedback
            
Submit corrections

comments powered by Disqus
↑ Back to top | God Forbid Tabs for End Of The World. Lyrics for acoustic guitar and electric guitar. 1 Tablatures and chords are parodies/interpretations of the original songs. You may use it for private study, scholarship, research or language learning purposes only