» » »

End Of The World Tabs (ver.6)

Artists:  A B C D E F G H I J K L M N O P Q R S T U V W X Y Z # 

End Of The World Tabs (ver.6)

God Forbid
Rating:
4/5 (3 votes)

Hard to play? Try these video lessons and learn fast.
                (Intro)
END OF THE WORLD   GOD FORBID     TABED BY DARK PONY

--------------------------------------------------------------------------|
--------------------------------------------------------------------------|
--------------------------------------------------------------------------|
--------------------------------------------------------------------------|
----3-4-X2-----------------56-------------------7-8------------------9-10-|
-1/3----000-000-000-000-3/5--333-333-333-333-5/7--777-777-777-777-7/9-----|

-------------|
-------------|
-------------|
-7-----------|
-5-----------|
-0-----------|  LET THAT RING


THATS IT FOR NOW TAB LATER              LATER!
            
Hard to play? Try these video lessons and learn fast. | Correct




comments powered by Disqus
↑ Back to top | Tablatures and chords are parodies/interpretations of the original songs. You may use it for private study, scholarship, research or language learning purposes only