» » »

End Of The World Tabs (ver.5)

Artists:  A B C D E F G H I J K L M N O P Q R S T U V W X Y Z # 

End Of The World Tabs (ver.5)

God Forbid
Rating:
4/5 (7 votes)

Hard to play? Try these video lessons and learn fast.
                (Intro)
Both Guitars

D|----------------------------------------------|
A|----------------------------------------------|
F|----------------------------------------------|
C|-----(3)-----------------------------------(2)|
G|------5-------------------------------------3-|
C|-(3^)-0-0-0-0-0-0-0-0-0-0-0-0-0-0-0-0-0-3^-0--|
pm     . . . . . . . . . . . . . . . . .

D|---------------------------------------------------------------------|
A|---------------------------------------------------------------------|
F|---------------------------------------------------------------------|
C|----------------------------------(7)--------------------------------|
G|-----------------------------------8---------------------------------|
C|-0-0-0-0-0-0-0-0-0-0-0-0-0-0-0-(8^)5--5-5-5-5-5-5-5-5-5-5-5-5-5-5-5-5|
pm . . . . . . . . . . . . . . .       . . . . . . . . . . . . . . . .

                               *
D|-------------------------------------------------------|
A|-------------------------------------------------------|
F|-------------------------------------------------------|
C|--------(7)-------------------------(11)---------------|
G|---------8---------------------------12----------------|
C|-8^-(8)-7--7-7-7-7-12^/11^(11)/(12)11---11-11-11-11-3^-|
pm        .  . . . .                  .    .  .  .  .

* guitar 1 bends 11th-fret note as shown
guitar 2 bends 12th-fret note as shown

Sorry if any of this confuses you. If you listen to the song slowly while looking at my 
youll know wat to do.
Thanx!
            
Hard to play? Try these video lessons and learn fast. | Correct




comments powered by Disqus
↑ Back to top | Tablatures and chords are parodies/interpretations of the original songs. You may use it for private study, scholarship, research or language learning purposes only