» » »

The Loner Tabs

Artists:  A B C D E F G H I J K L M N O P Q R S T U V W X Y Z # 

The Loner Tabs

(ver. 3)
Gary Moore Tabs
 Rating:
4/5 (4 votes)
    The Loner lessons Tabs too difficult? Try these video lessons and learn fast
                Gary Moore – The Loner 
Standard Tuning (EADGBE)

This is a hard piece but fun to show off with and once you get the hang of it, it aint that bad. I only did this because of the amazingly low number of Gary Moore tabs, and he is the greatest! BTW - timing is essential. 


Key thingy:

#b^(#) = bend up from # to #
(#)b*# = bend back down from # to #
#/# = slide from # to # 


E----------------------------
B----------------------------
G----------------------------
D------5----7/8------------8-
A---5---------------5/6------
E----------------------------

E------------------------
B------------------------
G------------------------
D------3----5/7----------
A---3---------------3/5--
E------------------------

E-----------------------------------------------------
B-----------------------------------------------------
G-----------------------------------------------------
D--------1---3/5------------3/5-----5---7/8----5---7--
A---5/1-------------1---0-----------------------------
E-----------------------------------------------------

E-------------------------------
B-------------------------------
G---5b^(7)b*5p3-----------------
D-------------5/7---5--3------5-
A--------------------------5----
E-------------------------------

E------------------------------
B------------------------------  listen to how he plays 
G---5b^(7)b*5p3----------5-----  n you’ll get wot i mean
D-------------5/7----5/3/5-----  (u must get it, on KaZaA)
A------------------------------
E------------------------------

E----------------------------
B------8---10/11----------11-
G---7---------------7/8------
D----------------------------
A----------------------------
E----------------------------

E--------------------
B----6---8/10--------
G--5------------5/7--
D--------------------
A--------------------
E--------------------

E-----------------------------------------
B--------4—6/8---------8--8-10/11--8--10--
G---7/3----------3/2----------------------
D-----------------------------------------
A-----------------------------------------
E-----------------------------------------

E-------------------------5---
B------8---10/11--------------
G---7--------------5/7/5------
D-----------------------------
A-----------------------------
E-----------------------------

E--------------------------------------
B------6---8/10------------------------
G---5---------------3/5/3-----0--2/1/2-
D--------------------------------------
A--------------------------------------
E-------------------------------------- 

E--------------------------------------------------
B---4---6/8-----------8---8-10-11----8---13qb^(15)-
G---------------3/2--------------------------------
D--------------------------------------------------
A--------------------------------------------------
E--------------------------------------------------

E-------------------------------------
B---playbendedstring-(15)—b*13—11/10--
G-------------------------------------
D-------------------------------------
A-------------------------------------
E-------------------------------------



E------------------------
B------------------------
G------------------------
D---------5b^(6)b*5-3----
A-----6----------------5-
E--3---------------------



E----------------------------------------------
B--------11---13—13b^(15)—13-11-10-------------
G----12----------------------------------------
D----------------------------------------------
A----------------------------------------6-----
E-------------------------------------3-----3--

E---RAKE!!!-----10-11--13--------------------
B---RAKE!!!----------------15b^(16)b*15---13-
G---RAKE!!!----------------------------------
D---RAKE!!!----------------------------------
A---RAKE!!!----------------------------------
E---RAKE!!!----------------------------------

E---------------------------------
B---11--13--13b^(15)b*13---11--10-
G---------------------------------
D---------------------------------
A---------------------------------
E---------------------------------

E------------------------------
B---8--10—10b^(11)b*10--8------
G--------------------------10--
D------------------------------
A------------------------------
E------------------------------

E----------------------------------------------
B----------------------------------------------
G---7b^(8)b*7--5--------3----------------------
D--------------------5-----5---5b^(6)5^(6)b*5--
A----------------------------------------------
E----------------------------------------------

E----10-11--13--------------------
B--------------15b^(16)b*15---13--
G---------------------------------
D---------------------------------
A---------------------------------
E---------------------------------

E---------------------------------
B---11--13--13b^(15)b*13---11--10-
G---------------------------------
D---------------------------------
A---------------------------------
E---------------------------------



E-----------------------------13b^(15)—17--15--14-15-17--
B---8--10—10b^(11)b*10--8--------------------------------
G----------------------------------------- Just fit this 
D----------------------------------------- bit in the way 
A----------------------------------------- u think it
E-----------------------------------------

E-------15--17/18---------------17-
B---15-----------------------------
G--------------------17/19/17------
D----------------------------------
A----------------------------------
E----------------------------------

E------------15--17----------------------
B-------18-------------------------------
G---17---------------15/17/15-----15/14--
D----------------------------------------
A----------------------------------------
E----------------------------------------

E------------------------------
B---16--18--20------------20---
G-----------------15/14--------
D------------------------------
A------------------------------
E------------------------------

LOOSE GAUGE OR SKILLED PERSON HERE TO MAKE IT SOUND RIGHT

E---15--17—17b^(18)---18b^(20)---20b^(21)-
B-----------------------------------------
G-----------------------------------------
D-----------------------------------------
A-----------------------------------------
E-----------------------------------------






E--20b^(21)--20--18/17---15--13------15--
B-------------------------------15-------
G----------------------------------------
D----------------------------------------
A----------------------------------------
E----------------------------------------

E--20b^(21)--20--18/17---15----------------
B----------------------------18--18b^(20)--
G------------------------------------------
D------------------------------------------
A------------------------------------------
E------------------------------------------

E--20b^(21)--20--18/17---15----13------13---IMPROV--
B----------------------------------15-------IMPROV--
G-------------------------------------------IMPROV--
D-------------------------------------------IMPROV--
A-------------------------------------------IMPROV--
E-------------------------------------------IMPROV--

E---20b^(21)--20--18/17-----------------
B-------------------------18---18b^(20)-
G---------------------------------------
D---------------------------------------
A---------------------------------------
E---------------------------------------


You can just improvise around the pentatonic scale now
I use things like

E------------------------------
B------6-----------------------
G---5-----5/7------3--5--3-----
D----------------------------5-
A------------------------------
E------------------------------

E------------------------------------
B------6------------------------5/8--
G---5-----5/7/10/7----3--5--3--------
D------------------------------------
A------------------------------------
E------------------------------------

Just make it up and add your own ‘style’ to this song

This is my first tab so be nice and rate, comment, and correct me plz!!
            
Submit corrections

↑ Back to top | Gary Moore Tabs for The Loner. Lyrics for acoustic guitar and electric guitar. Tablatures and chords are parodies/interpretations of the original songs. You may use it for private study, scholarship, research or language learning purposes only