» » »

Gary Moore, Still Got The Blues Tabs (ver.1)

Artists:  A B C D E F G H I J K L M N O P Q R S T U V W X Y Z # 

Still Got The Blues Tabs (ver.1)

Gary Moore Tabs
 Rating:
4/5 (4 votes)
Still Got The Blues lessons Tabs too difficult? Try these video lessons and learn fast
                Still got the blues "Gary Moore"
Intro:
           Dm7                     Dm7/G          Cmaj7 
|---------|-----------------------|-----------------|-----------------|
|---15--17|-17b18-------18r17--17-|-15-------13--15-|-15b17-----15b17-|
|14-------|-----------------------|-----------------|-----------------|
|---------|-----------------------|-----------------|-----------------|
|---------|-----------------------|-----------------|-----------------|
|---------|-----------------------|-----------------|-----------------|

Fmaj7                Bm7b5                E7                Am
|-------------------|-------------------|-----------------|-----------|
|-13-----10--12--13-|-13b15------13b15--|-12-------10-----|-----------|
|-------------------|-------------------|--------------12-|-12b14-----|
|-------------------|-------------------|-----------------|-----------|
|-------------------|-------------------|-----------------|-----------|
|-------------------|-------------------|-----------------|-----------|

Esta parte la toca la segunda guitarra  (this part is to Gtr 2)

Dm7               Dm7/G            Cmaj7            Fmaj7
|---------1------|---------1------|---------0------|---------0------|
|------1-----1---|------1-----1---|------0-----0---|------1-----1---|
|---2-----------2|---2-----------2|---0-----------0|---2-----------2|
|0---------------|----------------|----------------|3---------------|
|----------------|----------------|3---------------|----------------|
|----------------|3---------------|----------------|----------------|

Bm7b5              E7                 Am             
|---------1-------|---------0-------|----------------|--------------|
|-------3-----3---|------0-----0----|--------1-------|--------------|
|---2-----------2-|---1-----------1-|-----2-----2----|--------------|
|-----------------|-----------------|---2-----------2|--------------|
|2----------------|-----------------|0---------------|0----------7--|
|-----------------|0----------------|----------------|------5--8----|

coro:  ("So long, it was so long ago......")
         |Am      |Em    |Am    |D9    |F9    |E7#9    |Am  |

puente:
|Bm7   |Bm/E  |Am  Am/B |Am/C  |Bm7   |Bm7/E  |Fmaj7  Em7 |Dm7  |Am  |



Used to be so easy to give my heart away.
But I found out the hard way, there's
a price you have to pay.

I found out that love, is no friend of mine.
But I should've known time after 
time.

Coro:

So long it was so long ago,
but I still got the blues for you.

Used  to be so easy to fall in love again.
But I found out the hard way, it's
a road that leads to pain.  

But I found that love was more than just a game,
You're playin' to win but you
lose just the same.

repite coro

puente

So many years since I've seen your face,
but hear in my heart there's an empty
space where you used to be.

repite coro

coro alternativo:

Though the days come and go,
there is one thing I know, I still got the blues
for you.

Chords

Dm7   Dm7/G   Cmaj7   Fmaj7   Bm7b5   D9   F9   E7#9  Bm7  Em7
-1------1-------0-------0-------1----------------------2----0
-1------1-------0-------1-------3------5---8------8----3----0
-2------2-------0-------2-------2------5---8------7----2----0
-0------0-------2-------3--------------4---7------6----4----0
----------------3---------------2------5---8------7----2----2
--------3---------------------------------------------------0
            
Submit corrections

comments powered by Disqus
↑ Back to top | Gary Moore Tabs for Still Got The Blues. Lyrics for acoustic guitar and electric guitar. Tablatures and chords are parodies/interpretations of the original songs. You may use it for private study, scholarship, research or language learning purposes only