» » »

Gary Moore, Need Your Love So Bad Tabs (ver.1)

Artists:  A B C D E F G H I J K L M N O P Q R S T U V W X Y Z # 

Need Your Love So Bad Tabs (ver.1)

Gary Moore Tabs
Rating:
0/5 (0 votes)
Hard to play? Try these video lessons and learn fast.
                
Great Guitarist, he was amazing live in london, this may be confusing but if you have the
song to relate to it should make perfect sense. % = Rest

Intro Solo 
---------------------|-|----------------------------------------------|-|-----
--------10--12b--12b-|-|----10h12----10--12\------------10--12-----10-|-|-----
-9--11---------------|%|-11-------11-----------9--9--11--------11-----|%|-----
---------------------|-|----------------------------------------------|-|-----
---------------------|-|----------------------------------------------|-|-----
---------------------|-|----------------------------------------------|-|-----
                                                                              

---------------------------------------------------|-|--------12b-------------
----10--------13br-12b--10------10--12--12b--12p10-|-|-12b--------------12b12-
-11-------11-----------------11--------------------|%|------------------------
---------------------------------------------------|-|------------------------
---------------------------------------------------|-|------------------------
---------------------------------------------------|-|------------------------
                                                                              

----------------------------|-|-5---8-------10--11--12------------------------
-10----10------10h12--------|-|-7--10-------12--13--14------------------------
------------11-------11--10-|%|-----------------------------------------------
----------------------------|-|-----------------------------------------------
----------------------------|-|-----------------------------------------------
----------------------------|-|-----------------------------------------------
                                                                   
Solo      
------------------------|-|----12br-----|-|-------12b-|-|-----------|-|-------
----12br-10-----12b-12b-|-|-10-------10-|-|----10-----|-|-----------|-|-------
-11----------11---------|%|-------------|%|-11--------|%|-12b-10----|%|----10-
------------------------|-|-------------|-|-----------|-|--------11-|-|-11----
------------------------|-|-------------|-|-----------|-|-----------|-|-------
------------------------|-|-------------|-|-----------|-|-----------|-|-------
                                                                              

-----10--12--------------|-|-----------|-|---------12b---------------------|--
-12b--------12b-12----10-|-|-12-12b----|-|--12b----------12b-12p10-----12\-|--
-------------------11----|%|--------11-|%|---------------------------------|%-
-------------------------|-|-----------|-|---------------------------------|--
-------------------------|-|-----------|-|---------------------------------|--
-------------------------|-|-----------|-|---------------------------------|--
                                                                              

----------------|-|-------------------------5---|-|-----------------------|-|-
----10h12----10-|-|-8-----------------------5---|-|----12br-p10----12b-12b|-|-
-11-------11----|%|---7brp5---7p5------5h6------|%|-11----------11--------|%|-
----------------|-|---------7------7------------|-|-----------------------|-|-
----------------|-|---------------------------7-|-|-----------------------|-|-
----------------|-|-----------------------------|-|-----------------------|-|-
                                                                              

----12b-12--10------------------------------12b--12--10-----------------------
-10------------12b--12-----10---12-12b--10---------------13-12-10-10-10-------
-----------------------11------------------------------------------------11---
                                                                              

------------------------------10--12-------------------------|-|--------------
-12b------10----------10--12b---------12brp10----10--10---12-|-|----10-12b----
-------11----------11-------------------------11-------------|%|-11-----------
-------------------------------------------------------------|-|--------------
-------------------------------------------------------------|-|--------------
-------------------------------------------------------------|-|--------------
                                                                              

-12b------------------------|-|--------------10-------------------------------
-----12brbr-10-----10-------|-|----10--12b------13-12-10----10-10v\-7brp5-----
---------------11-------11\-|%|-11-----------------------11---------------7---
----------------------------|-|-----------------------------------------------
----------------------------|-|-----------------------------------------------
----------------------------|-|-----------------------------------------------
                                                                              

---------------------------|-|-12b----12--10--12----------|-|-----------10----
--------------5---------5--|-|--------------------12b-12b-|-|----10-12b-------
-7brp5----5h6-------5h6----|%|----------------------------|%|-11--------------
-------7-------------------|-|----------------------------|-|-----------------
--------------------------7|-|----------------------------|-|-----------------
---------------------------|-|----------------------------|-|-----------------
                                                                              

-----------------|-|-12b--12--16--12--10----------------|-|-------------------
-12b-10------10v-|-|---------------------13--12--10--10-|-|----12brb---10-----
---------11------|%|------------------------------------|%|-11----------------
-----------------|-|------------------------------------|-|-------------------
-----------------|-|------------------------------------|-|-------------------
-----------------|-|------------------------------------|-|-------------------
                                                                              

-12--11p10---------------------------------------|-|-15br--12b----------------
------------13--10--12--12b-----10-----12-12b----|-|--------------12brbrp10---
----------------------------11----------------11-|%|--------------------------
-------------------------------------------------|-|--------------------------
-------------------------------------------------|-|--------------------------
-------------------------------------------------|-|--------------------------
                                                                              

--------------|-|-----8--10-10b-10--8----------|-|-----5----------------------
----10-12--14-|-|-10-------------------10---10-|-|--8b---8p5------------------
-11-----------|%|-------------------------9----|%|------------8p7p5----7p5h6--
--------------|-|------------------------------|-|------------------7---------
--------------|-|------------------------------|-|----------------------------
--------------|-|------------------------------|-|----------------------------
                                                                              

---|-|-12b--12b--12--10---------|-|-------------------------------------------
-5-|-|--------------------12brb-|-|-------------------------------------------
---|%|--------------------------|%|-------------------------------------------
---|-|--------------------------|-|-------------------------------------------
---|-|--------------------------|-|-------------------------------------------
---|-|--------------------------|-|-------------------------------------------
            

comments powered by Disqus
↑ Back to top | Gary Moore Tabs for Need Your Love So Bad. Lyrics for acoustic guitar and electric guitar. Tablatures and chords are parodies/interpretations of the original songs. You may use it for private study, scholarship, research or language learning purposes only