>
 >
Still Got The Blues 2

Still Got The Blues 2 Bass Tabs

Gary Moore - Still Got The Blues 2 chords, tabs, tablatures, lyrics

Guitar lessons | Add/correct | Request | Top 50 tabs Artists:  A B C D E F G H I J K L M N O P Q R S T U V W X Y Z 0-9

Still Got The Blues 2 Bass Tabs – Gary Moore

CD, Sheet music, Poster

Do you like Still Got The Blues 2? Share with your friends now
Bass TabsBass Tabs v2Bass Tabs v3ChordsChords v2TabsTabs v2Tabs v3Tabs v4Ukulele

STILL GOT THE BLUES (Bassline)
As recorded by Gary Moore
(From the 1990 Album STILL GOT THE BLUES)

	

Words and Music by Gary Moore

Gtr I (E A D G) - 'Bass'

 Intro
  Q.=48
 6/8
  Gtr I
  W        H.        H.        H.        H    E E
|--------|---------|---------|---------|----------|
|--------|---------|---------|---------|------3-2-|
|--------|-5-------|---------|-3-------|----------|
|--------|---------|-3-------|---------|-1--------|


  H.        H    E E   H    E E   E Q  E E E
|---------|----------|----------|-------------||
|---------|-2--------|------2---|-------------||
|-2-------|------2---|--------3-|----------7--||
|---------|--------3-|-5--------|-5----5-8----||


   Verse
    $
    H.        H.        H.        H    E E
||----------|---------|---------|----------|
||o---------|-5-------|---------|-3----3-2-|
||o-5-------|---------|-3-------|----------|
||----------|---------|---------|----------|


  H.        H    E E   Q.   Q.     Q.   E E E
|---------|----------|-----------|---------------|
|---------|-2--------|-----------|---------------|
|-2-------|------2---|------2----|-3--------7----|
|---------|--------3-|-5---------|------5-8------|


  H.        H.        H.        H    E E   H.
|---------|---------|---------|----------|---------|
|---------|-5-------|---------|-3----3-2-|---------|
|-5-------|---------|-3-------|----------|-2-------|
|---------|---------|---------|----------|---------|


  H.        E E E E E E   E E E E E E
|---------|-------------|----------------||
|---------|-2-2-2-2-2-2-|-2-2-2-2-2-2----||
|-2-------|-------------|----------------||
|---------|-------------|----------------||


 Chorus
  H.        H    +E  E   H.        H.
|---------|------------|---------|---------|
|---------|------------|---------|---------|
|---------|------------|---------|-5-------|
|-5-------|-0----(0)-0-|-5-------|---------|


                      1.
             To Coda
  H.        H.        H    E E   E Q  E E E
|---------|---------|----------|----------------||
|---------|---------|------2---|---------------o||
|---------|---------|--------3-|----------7----o||
|-1-------|-0-------|-5--------|-5----5-8-------||


 Bridge
  2.
  H.        H    E E   H.        H    E E   Q.   Q.     H    E E
|---------|----------|---------|----------|-----------|----------|
|---------|----------|---------|-2--------|-----------|----------|
|---------|------0-1-|-2-------|------2---|-0----2----|-3----0-1-|
|-5-------|-5--------|---------|--------3-|-----------|----------|


                                                    D.S. al Coda
  H.        H.        Q.   Q.     H.        H    E E   E Q  E E E
|---------|---------|-----------|---------|----------|------------||
|---------|-2-------|-3---------|---------|------2---|------------||
|-2-------|---------|------3----|-5-------|--------3-|----------7-||
|---------|---------|-----------|---------|-5--------|-5----5-8---||


 Extended Chorus
  &
  H.        E E E E E E   H.        H    +E  E
|---------|-------------|---------|------------|
|---------|---2-2-2-2-2-|---------|------------|
|---------|-------------|---------|------------|
|-5-------|-------------|-5-------|-0----(0)-0-|


  H.        H.        H.        H.
|---------|---------|---------|-------||
|---------|---------|---------|-------||
|---------|-5-------|---------|-------||
|-5-------|---------|-1-------|-0-----||


   Outro Solo
    H.        H.        H.        H    E E
||----------|---------|---------|----------|
||o---------|-5-------|---------|-3----3-2-|
||o-5-------|---------|-3-------|----------|
||----------|---------|---------|----------|


  H.        H    E E   Q.   Q.     Q.   E E E     7x
|---------|----------|-----------|----------------||
|---------|-2--------|-----------|---------------o||
|-2-------|------2---|------2----|-3--------7----o||
|---------|--------3-|-5---------|------5-8-------||


                                                               Free Time Cadenza
  H.        H.        H.        H    E E   H.        H.         H.
|---------|---------|---------|----------|---------|---------||-------*|
|---------|-5-------|---------|-3----3-2-|---------|---------||-------*|
|-5-------|---------|-3-------|----------|-2-------|---------||-------*|
|---------|---------|---------|----------|---------|-0-------||-5-----*|



Duration Legend
---------------
W - whole; H - half; Q - quarter; E - 8th; S - 16th; T - 32nd; X - 64th; a - acciaccatura
+ - note tied to previous; . - note dotted; .. - note double dotted
Uncapitalized letters represent notes that are staccato (1/2 duration)
Irregular groupings are notated above the duration line
Duration letters will always appear directly above the note/fret number it represents the
duration for.  Duration letters with no fret number below them represent rests.  Multi-
bar rests are notated in the form Wxn, where n is the number of bars to rest for.  Low
melody durations appear below the staff

Tablature Legend
----------------
 h   - hammer-on
 p   - pull-off
 b   - bend
 pb  - pre-bend
 r   - bend release (if no number after the r, then release immediately)
 /\  - slide into or out of (from/to "nowhere")
 s   - legato slide
 S   - shift slide
 - natural harmonic
[n]  - artificial harmonic
n(n) - tapped harmonic
 ~   - vibrato
 tr  - trill
 T   - tap
 TP  - trem. picking
 PM  - palm muting
\n/  - tremolo bar dip; n = amount to dip
 \n  - tremolo bar down
 n/  - tremolo bar up
/n\  - tremolo bar inverted dip
 =   - hold bend; also acts as connecting device for hammers/pulls
 <> - volume swell (louder/softer)
 x   - on rhythm slash represents muted slash
 o   - on rhythm slash represents single note slash

Misc Legend
-----------
 |  - bar
||  - double bar
||o - repeat start
o|| - repeat end
*|  - double bar (ending)
 :  - bar (freetime)
 $  - Segno
 &  - Coda
Tempo markers -  = BPM(8/16=s8/s16), where s8 = swing 8ths, s16 = swing 16ths





Comments


Popular Gary Moore tabs & chords
Out In The Fields 2 Bass Tabs
Still Got The Blues Bass Tabs
The Loner Bass Tabs
Bad For You Baby Tabs
Dont Believe A Word Tabs
Dont Believe A World Tabs
Over The Hills And Far Away Intro Tabs
Still Got The Blues Tabs
Waiting In The Wings Tabs
I Had A Dream Ukulele


Song lyrics



↑ Back to top | Tablatures and chords are parodies/interpretations of the original songs. You may use it for private study, scholarship, research or language learning purposes only
© 2014 AZChords.com Contact us | Privacy policy | DMCA | Add/correct tabs | Request tabs | Top 50 tabs