» » »

Gary Moore, Rectify Tabs (ver.2)

Artists:  A B C D E F G H I J K L M N O P Q R S T U V W X Y Z # 

Rectify Tabs (ver.2)

Gary Moore Tabs
Rating:
0/5 (0 votes)
Rectify lessons Tabs too difficult? Try these video lessons and learn fast
                -----------------------------------------------------------------------------
                             Rectify - Gary Moore
-----------------------------------------------------------------------------

Tuning: Standard-EADGBE


Before you read this tab remember that this is only a guide to playing this song. Rhythm 
and feel cannot be expressed in tab. So when learning this song and any other song I 
strongly encourage you to learn while listening to the original song.


               Intro

e|-----------------x-x-x-x-x-x----------------|
B|-----------------x-x-x-x-x-x----------------|
G|-----------------x-x-x-x-x-x----------------|
D|--------------0--x-x-x-x-x-x---------0------|    -repeat 4x
A|--------0h1h2----x-x-x-x-x-x---0h1h2---2~~--|
E|-12\--0----------x-x-x-x-x-x----------------|

   Verse is the same as the intro, however the slide isn't always used.

               Chourus

e|------------------------------------------------------|
B|------------------------------------------------------|
G|------------------------------------------------------|
D|---2p0-------------5--7-------2p0-------------8--7----|  -repeat 2x then back
A|-------2p1p0-------5--7-----------2p1p0-------8--7----|   to verse
E|-------------3p0---3--5-----------------3p0---6--5----|
                ^
   (slight bend as you pull off)


That is the major part of the song. My ability is not good enough to tab out the solo, 
but I can tell you it uses the E pentatonic scale.

***********************************

| /   slide up
| \   slide down
| h   hammer-on
| p   pull-off
| ~   vibrato
| +   harmonic
| x   Mute note
| b   Bend
| pb  Pre-bend
| br  Bend release
| pbr Pre-bend release
| brb Bend release bend

************************************
            

comments powered by Disqus
↑ Back to top | Gary Moore Tabs for Rectify. Lyrics for acoustic guitar and electric guitar. Tablatures and chords are parodies/interpretations of the original songs. You may use it for private study, scholarship, research or language learning purposes only