>
 >
Picture Of The Moon 1

Picture Of The Moon 1 Guitar Tabs

Gary Moore - Picture Of The Moon 1 chords, tabs, tablatures, lyrics

Guitar lessons | Add/correct | Request | Top 50 tabs Artists:  A B C D E F G H I J K L M N O P Q R S T U V W X Y Z 0-9

Picture Of The Moon 1 Guitar Tabs – Gary Moore

CD, Sheet music, Poster

Do you like Picture Of The Moon 1? Share with your friends now
TabsTabs v2
Intro

E--------------------------------------------------------------------
B--------------------------------------------------------------------
G-14-16-17-20b(20pb)(20pb)-20-19~------18b(18pb)(18pb)-18-17~-14-16--
D--------------------------------14-14-------------------------------
A--------------------------------------------------------------------
E--------------------------------------------------------------------

E--------------------------------------------------------------------
B----------------------------------------Fill-1-----Fill-2-----------
G-16b-19-17-16br-13---13b----------------7b-7-5-----/14~-------------
D------------------14-----------------------------------------------
A--------------------------------------------------------------------
E--------------------------------------------------------------------

E------------------------------------------------------Fill-6------
B----Fill-3------------Fill-4--------------------------/14-12-10-9~
G--14-15-17-17/18~--9h11p9----------------Fill-5-------------------
D-------------------------12-10-12h14---10-12-9/119~--------------
A------------------------------------------------------------------
E------------------------------------------------------------------

E----15------------------14------------------13----------------------
B-------17-17/18-18~--------15-15/17-17~--------14-14/15-17-17b-17b--
G-14------------------13------------------12-------------------------
D--------------------------------------------------------------------
A--------------------------------------------------------------------
E--------------------------------------------------------------------

E-------------------15b-15-13-13~----14-10-10/12-12~----13-12-10-----
B-17-17-15-13~-------------------------------------------------------
G----------------14---------------12-----------------10--------------
D--------------------------------------------------------------------
A--------------------------------------------------------------------
E--------------------------------------------------------------------

E-12-13----------------------------------12h13p12--------------------
B-------12~-12b-10-11b-9~-6~-3~-------------------15-13-13/17--------
G-------------------------------4~/9~-----Fill-7---------------------
D--------------------------------------------------------------------
A--------------------------------------------------------------------
E--------------------------------------------------------------------

E--------------------------------------------------------------------
B-------Fill-8------------Fill-9--------Fill-10----------------------
G-14~-16~-12~-12/14-9~----7-5-2~----14-16br-14-12-9~-----------------
D--------------------------------------------------------------------
A--------------------------------------------------------------------
E--------------------------------------------------------------------

E--------------------------------------------------------------------
B--------------------------------------------------------------------
G-14-16-17-20b(20pb)(20pb)-20-19~------18b(18pb)(18pb)-18-17~-14-16--
D--------------------------------14-14-------------------------------
A--------------------------------------------------------------------
E--------------------------------------------------------------------



E--------------------------------------------------------------------
B--------------------------14-15-17b-15---------12-15-17b(17pb)(17pb)
G-17-20b(20pb)(20pb)-20-19--------------16b--/14---------------------
D--------------------------------------------------------------------
A--------------------------------------------------------------------
E--------------------------------------------------------------------



E--------------------------------------------------------------------
B-15-12----17b-15brbr-13~----10-12-13-13b-13~-12-9---/10~-10-12~-13--
G-------12---------------/14-----------------------9-----------------
D--------------------------------------------------------------------
A--------------------------------------------------------------------
E--------------------------------------------------------------------

E--------------------------------------------------------------------
B-16b(16pb)(16pb)-16-15~----14b(14pb)(14pb)-14-13~----13/20-20p19p17~
G--------------------------------------------------14----------------
D------------------------14------------------------------------------
A--------------------------------------------------------------------
E--------------------------------------------------------------------

E--------------------------------------------------------------------
B-17-17-16-15~-15-17-17b-17-15-17b-17-17p16p15-13~-12-13-13b-13b-----
G----------------------------------------------------------------12--
D--------------------------------------------------------------------
A--------------------------------------------------------------------
E--------------------------------------------------------------------

E--------------------------------------------------------------------
B----13b-13-15-15b-10-12-13~-15-13-12br-9---10~-10-12-13-13p12p10-10-
G-12-------------------------x------------9--------------------------
D----------------------------x---------------------------------------
A--------------------------------------------------------------------
E--------------------------------------------------------------------

E-----------------------15-13----------------------------------------
B-12-13-14-15-17-13-15b-------15b-13-15-15brbr-/15-13-10~-10-12-13---
G--------------------------------------------------------------------
D--------------------------------------------------------------------
A--------------------------------------------------------------------
E--------------------------------------------------------------------

E-----15-13-------------------13------------/17-17-15-13h15p13-10-10-
B-15b-------15b-15-13-15b-15b----15b-15br-13-------------------------
G--------------------------------------------------------------------
D--------------------------------------------------------------------
A--------------------------------------------------------------------
E--------------------------------------------------------------------

E-12-13-15-15-12-----------------------------------------------------
B----------------13~-13-15-17-15h17p15-13-15~-19b-15b-15b-15-13-13-10
G--------------------------------------------------------------------
D--------------------------------------------------------------------
A--------------------------------------------------------------------
E--------------------------------------------------------------------




E--------------------------------------------------------------------
B-10-12-13-13p12p10-10-12-13-15-17-19-20-20b-17-20-22b-18-22b-22-20--
G--------------------------------------------------------------------
D--------------------------------------------------------------------
A--------------------------------------------------------------------
E--------------------------------------------------------------------

E-------15-19-19b-19----19b----17b-17----17-19-20-19-17-19-20-22b----
B-17-17--------------17-----19--------17-----------------------------
G--------------------------------------------------------------------
D--------------------------------------------------------------------
A--------------------------------------------------------------------
E--------------------------------------------------------------------

E-(22pb)(22pb)22-19-------20b-19-20-22b-17-19-20-20b-22-20-20-19-17--
B-------------------20-20--------------------------------------------
G--------------------------------------------------------------------
D--------------------------------------------------------------------
A--------------------------------------------------------------------
E--------------------------------------------------------------------

E--------------------------------------------------------------------
B-17-20b-------------------------------------------------------------
G--------19br-17--------14-16-17-20b(20pb)(20pb)-20-19~------18b-----
D----------------19-19---------------------------------14-14---------
A--------------------------------------------------------------------
E--------------------------------------------------------------------

E--------------------------------------------------------------------
B--------------------------------------------------------16-17-18b---
G-(18pb)(18pb)-18-17~--14-16-17-20b(20pb)(20pb)-20-19-19-------------
D--------------------------------------------------------------------
A--------------------------------------------------------------------
E--------------------------------------------------------------------

E--------------------------------------------------------------------
B-(18pb)(18pb)-18-------17b-17-15h17p15-13~--------------------------
G-----------------17-14--------------------/14-16-17-17b--Fade-------
D--------------------------------------------------------------------
A--------------------------------------------------------------------
E--------------------------------------------------------------------





Comments


Popular Gary Moore tabs & chords
Need Your Love So Bbad Bass Tabs
The Loner Bass Tabs
Empty Rooms Live Chords
Just Can't Let You Go Chords
Cant Fool The Blues Tabs
Don't You Lie To Me (I Get Evil) Tabs
Hiroshima Tabs
Jumpin' At Shadows Tabs
Wishing Well Tabs
Still Got The Blues Ukulele


Song lyrics



↑ Back to top | Tablatures and chords are parodies/interpretations of the original songs. You may use it for private study, scholarship, research or language learning purposes only
© 2014 AZChords.com Contact us | Privacy policy | DMCA | Add/correct tabs | Request tabs | Top 50 tabs