» » »

Out In The Fields Tabs (ver.3)

Artists:  A B C D E F G H I J K L M N O P Q R S T U V W X Y Z # 

Out In The Fields Tabs (ver.3)

Gary Moore
Rating:
0/5 (0 votes)

Tabs too difficult? Try these video lessons and learn fast.
                Gary Moore and Phillip Lynott Out In The Fields
Excellent song,killer solo since I saw it wasn't on the site i decided to put it up.

Taken from guitar pro

whammy bar is recommended for this song to get the right feel
and cool video of a dude playing it is right here


e-------------------------------------------------------|
b----------------------------------------------------3--|
g-2~-0h2p0-------------------------------------2-3-5----|
d----------3-2-3-5--2h3p2p0--0-2-3-3/\---2-3-5----------|
a---------------------------------------5---------------|
e-------------------------------------------------------|

e-------------------------------------------|
b-5-3-5-3-----6-5-----8-6/10-8/11-10--------|
g---------5-3-----7-5-----------------------|
d-------------------------------------12~12-|
a-------------------------------------------|
e-------------------------------------------|

e--------------------------------------------------------------------------|
b--------------------------------------------------------------------------|
g--------------------------------------------------------------------------|
d-------------------------------------------------8-------8-10----8-10-12--|
a-----------------8-------8-10----8-10-12-8-10-12---10-12------12----------|
e-8-10-12-8-10-12---10-12------12------------------------------------------|

  ^----------------------------------------------------------------------^

Palm mute this section

e------------------------------------------------------------------|
b------------------------------------------13-------13-15-13-15-17-|
g---------9----9-10-12-9-10-12-14-12-14/15----14-15----------------|
d-8-10-12---12-----------------------------------------------------|
a------------------------------------------------------------------|
e------------------------------------------------------------------|


e-------------15----15-17-18-15-17-18/20-17-18-20-20B(22)-20B(22)--|
b-18-15-17-18----18------------------------------------------------|
g------------------------------------------------------------------|
d------------------------------------------------------------------|
a------------------------------------------------------------------|
e------------------------------------------------------------------|


e-20-18-17--------------17----17-21-17-21-22B(24)-22-|
b----------20-20/-17-17----17------------------------|
g----------------------------------------------------|
d----------------------------------------------------|
a----------------------------------------------------|
e----------------------------------------------------|
            
Tabs too difficult? Try these video lessons and learn fast.




comments powered by Disqus
↑ Back to top | Tablatures and chords are parodies/interpretations of the original songs. You may use it for private study, scholarship, research or language learning purposes only