» » »

Gary Moore, Out In The Fields Tabs (ver.1)

Artists:  A B C D E F G H I J K L M N O P Q R S T U V W X Y Z # 

Out In The Fields Tabs (ver.1)

Gary Moore Tabs
 Rating:
4/5 (4 votes)
Out In The Fields lessons Tabs too difficult? Try these video lessons and learn fast
1
                Standard Tunning
This is a great song, which there are not many tabs for, a little
daunting to tab, so all comments are welcome, please dont shout at
me, if you think it, or ay parts are wrong, but please comment,
but try to keep it to constructive critscism, as there are no other tabs out there, and 
dont see many appearing.

INTRO X2
guitar 1
e-------------|
B-------------|
G--7----------|
D--7----------|
A--5----------|
E-------------|

guitar 2
e---13-12---------|
b---------13--15--|
g-----------------|
d-----------------|
a-----------------|
E-----------------|

guitar 1
e-------------|
B-------------|
G--7----------|
D--7----------|
A--5----------|
E-------------|

guitar 2
e---13-12---------|
b---------13--15--|
g-----------------|
d-----------------|
a-----------------|
E-----------------|


guitar 1
e-------------|
B-------------|
G--3----------|
D--3----------|
A--1----------|
E-------------|

guitar 2
e---13-12-15---|
b-----------15-|
g--------------|
d--------------|
a--------------|
E--------------|

guitar 1
e-------------|
B-------------|
G-------------|
D--5----------|
A--5----------|
E--3----------|

VERSE
e---------------|
B---------------|    it dosnt matter if you wrong or if your right
G--7------------|
D--7------------|
A--5------------|
E---------------|

e---------------|
B---------------|    it makes no difference if your black or your white
G--3------------|
D--3------------|
A--1------------|
E---------------|

e----------------------|
B----------------------|    all men are equal til the victory is won
G----------5----5------|
D----------5----5------|
A----------3----3------|
E-/////////------------|
i dont know what the symbol is to rake the plectrum down the fretboard
so i'll use this

e---------------|
B---------------|    no colour or religion
G---------------|
D--5------------|
A--5------------|
E--3------------|

e--------------|
B--------------|    ever stopped a bullet from a gun
G--------------|
D--7-----------|
A--7-----------|
E--5-----------|

CHORUS
    out...in..the..fields....the....fight..ing..has..begun
e------------------------------------------------------------|
B------------------------------------------------------------|
G---7-----7---8----5-----------------------------------------|    x3
D---7-----7---8----5-----------------------------------------|
A---5-----5---6----3-----------------------------------------|
E------------------------------------------------------------|
on the third, finnish with:
e---------------------------------------------------------------------|
B---------------------------------------------------------------------|
G---7-----7---8----5------3-3-3---3-3-3---3-3-3---3-3-3---3-3-3-------|
D---7-----7---8----5------3-3-3---3-3-3---3-3-3---3-3-3---3-3-3---5---|
A---5-----5---6----3------1-1-1---1-1-1---1-1-1---1-1-1---1-1-1---5---|
E-----------------------------------------------------------------3---|

then play intro again

then the verse again

then chrous

then intro but different:


e-------------|
B-------------|
G--7----------|
D--7----------|
A--5----------|
E-------------|

guitar 2
e---13-12---------|
b---------13--15--|
g-----------------|
d-----------------|
a-----------------|
E-----------------|

e-------------|
B-------------|
G--7----------|
D--7----------|
A--5----------|
E-------------|

guitar 2
e---13-12----------|
b---------13-------|
g------------15----|
d------------------|
a------------------|
E------------------|

e-----------------------------------------------|
B-----------------------------------------------|
G--3--3---3-3---3-3---3--3----------------------|
D--3--3---3-3---3-3---3--3---5-5--5-5--5-5--5-5-|
A--1--1---1-1---1-1---1--1---5-5--5-5--5-5--5-5-|
E----------------------------3-3--3-3--3-3--3-3-|
  theres no  communication  no one to take the blame


e----------------------------------------------|
B----------------------------------------------|
G--2-2--2-2--2-2--2-2--------------------------|
D--2-2--2-2--2-2--2-2---5-5---5-5---5-5---5-5--|
A-----------------------5-5---5-5---5-5---5-5--|
E-----------------------3-3---3-3---3-3---3-3--|
 the cries of every nation are falling on deaf ears ag-ain

e-----------------------------------------------------|
b-----------------------------------------------------|
g---7---10---3----5--------7----10----3----5----------|
d---7---10---3----5--------7----10----3----5----------|
a---5---8----1----3--------5----8-----1----3----------|
E-----------------------------------------------------|

solo:
Ok, this was not easy,and im not sure about part of it, but if you play it fast enough 
easy) then it sounds pretty much right.

e------------------------------------------------|
b------------------------------------------------|
g------------------------------------------------|
d---/7--7--5--3--2--3--5--2h3p3--0----0--2--3----|
a------------------------------------------------|
E------------------------------------------------|

e---------------------------------------------------------------------------|
b------------------------------7-5h7p7-----8--6---8/10---8--10/11--10-------|
g----------------5-7-9-7h9p9-5--------7-------------------------------7-----|
d----------5-7-8------------------------------------------------------------|
a----5-7-8------------------------------------------------------------------|
E---------------------------------------------------------------------------|

this is the hard part (played really fast)

e----------------------------------------------------------------------|
b----------------------------------------------------------------------|
g---------------------------------------------------------15--17--19---|
d----------------------------------------------14--15--17--------------|
a--4--5--7--7--8--10---10--11--13---13--14--16-------------------------|
E----------------------------------------------------------------------|

e------------------------------------------------------------------21b-21-|
b--17----17---19b21--19--17--15---------15---17--15--17--19--17-21--------|
g-----19-------------------------17--17-----------------------------------|
d-------------------------------------------------------------------------|
a-------------------------------------------------------------------------|
E-------------------------------------------------------------------------|

as i say, i'm really not sure about the last bit of the solo so try it and see.


then play power chords for chorus
then repeat the chorus until the end, the end part is:
e---12--10--8------------------------------------------|
b-------------12-10-8----------------------------------|
g---------------------11--9-7--------------------------|
d-----------------------------11-9-7-------------------|
a------------------------------------11-9-7-6----------|
E---------------------------------------------12-------|
            
Submit corrections

comments powered by Disqus
↑ Back to top | Gary Moore Tabs for Out In The Fields. Lyrics for acoustic guitar and electric guitar. 1 Tablatures and chords are parodies/interpretations of the original songs. You may use it for private study, scholarship, research or language learning purposes only