» » »

Gary Moore, Hiroshima Tabs (ver.1)

Artists:  A B C D E F G H I J K L M N O P Q R S T U V W X Y Z # 

Hiroshima Tabs (ver.1)

Gary Moore Tabs
 Rating:
4/5 (4 votes)
Hiroshima lessons Tabs too difficult? Try these video lessons and learn fast
1
                STANDARD TUNING
Hiroshima By Gary Moore              
this is one of my favourite        ^ = PM  AH = artificial harmonic
Gary Moore Songs. piedog.     
  

 INTRO (X4)

-|-------------------------------------------------
-|-------------------------------------------------
-|-------------------------------------------------
-|-------9---------9----------9--------------------
-|-------7---------7----------7--------------------
-|--0-0-------0-0------0-0-0------0-2-3-5-3-2-0----
    ^ ^       ^ ^      ^ ^ ^      ^ ^ ^ ^ ^ ^ ^ 
           ^     =     Palm Mute

-|------------------------------------------------
-|------------------------------------------------
-|------------------------------------------------     
-|-------9-----------9-------7--------5-----------          
-|-------7-----------7-------5----s---3-----------      
-|--0-0---------0-0-------------------------------
    ^ ^         ^ ^ 

  VERSE (X2)

-|-----------------------------------------------------------------
-|-----------------------------------------------------------------
-|------------------------------------(7)-----(7)-----(5)------(5)-
-|-------9--------9--------9-----------7-------7-------5--------5--
-|-------7--------7--------7-----------5-------5-------3--------3--
-|--0-0------0-0------0-0-------0-0-0-----0-0-----0-0------0-0-----
    ^ ^      ^ ^      ^ ^       ^ ^ ^     ^ ^     ^ ^      ^ ^ 

(7) = play this extra note the second time round.


-|------------------------------------------|----------------------------------------
-|------------------------------------------|----------------------------------------
-|------------------------------------------|----------------------------------------
-|-----9-------9----------9-----------------|----9--------9----------9--------------- 
-|-----7-------7----------7-----------------|----7--------7----------7---------------
-|-0-0-----0-0------0-0-0-----0-2-3-5-3-2-0-|0-0-----0-0------0-0-0-----0-2-3-5-3-2-0
   ^ ^     ^ ^      ^ ^ ^     ^ ^ ^ ^ ^ ^ ^  ^ ^     ^ ^      ^ ^ ^     ^ ^ ^ ^ ^ ^ ^  


 PRE CHORUS

-|----------------------------------------------------
-|----------------------------------------------------
-|----------------------------------------------------
-|--------------7----9-------------------7------------
-|---9---9------5----7---9--------9--9---5-----9------
-|---7---7---------------7--------7--7---------7------

-|----------------------------------------------------------------
-|----------------------------------------------------------------
-|----------------------------------------------------------------
-|-----------------------------------------------------------9----
-|----------2------------------2-------------------2---------9----
-|-0-2-3-5----5-3-2----0-2-3-5---5-3-2-----0-2-3-5---5-3-2---7----
   ^ ^ ^ ^  ^ ^ ^ ^    ^ ^ ^ ^ ^ ^ ^ ^     ^ ^ ^ ^ ^ ^ ^ ^  
          
CHORUS         

-|-----------------------------------------------------------
-|-----------------------------------------------------------
-|-----------------------------------------------------------
-|-----9-------5-------2------------9--------5--------2------
-|-----7-------3-------0------------7--------3--------0------
-|-----------------------------------------------------------

     HIROSHIIMMMMA!

  
  the intro is then played once, and everything is then repeated
  over again THEN THIS IS PLAYED OVER LIIIIIIFFFFFEEE!:

   
   BRIDGE/LEAD RIFF 

-|-----------------------------------------------------------------
-|-----------------------------------------------------------------
-|----------9--9---11--11---9--9----------9--9---11--11---9-9------
-|--10--10------------------------10--10---------------------------
-|-----------------------------------------------------------------
-|-----------------------------------------------------------------

-|-----------------------------------------------------------------
-|-----------------------------------------------------------------
-|--------9--9---11--11---9--9-----------9--9---11---11---9--9-----
-|---9-9----------------------------9-9----------------------------
-|-----------------------------------------------------------------
-|-----------------------------------------------------------------

Repeat all this together FOR 4 TIMES then:

-|------------------------------------------------------------
-|------------------------------------------------------------
-|---16-16-16-16---14-14-14-14---11-11-11-11---9-9-9-9--------
-|----x--x--x--x----x--x--x--x----x--x--x--x---x-x-x-x--------
-|---14-14-14-14---12-12-12-12----9--9--9--9---7-7-7-7--------
-|------------------------------------------------------------


Im not so sure about that part but then you play the intro twice
and then comes the solo. The 2nd guitar just carrys on playing
the intro for the backing to the solo

  Guitar SOLO 

  im really not so sure about this but at least i tried :P
  i think a whammy bar or sumthing is used but i dont
  know where

-|--------------------------------------------------------
-|--------------------------------------------------------
-|--------------------------------------------------------
-|-----------------------------4h5p4----------------------
-|----2-------------------------------7~~-----7---5---3---
-|----0------0--2-3-5-3-2-0-------------------------------
             ^  ^ ^ ^ ^ ^ ^ 
-|-----------------------------------------------------------------
-|-----------------------------------------------------------------
-|-----------------------------------------------------------------
-|--------5---7--5~~----7b9--7b9~~~~-------------------------------
-|--5--7-----------------------------------------------------------
-|-----------------------------------------------------------------


-|--------------------------------15b16--15b16--15b16-15b16--------
-|-----------------------------------------------------------------
-|----11b12--9~~--11h12p11h12p11-----------------------------------
-|-----------------------------------------------------------------
-|-----------------------------------------------------------------
-|-----------------------------------------------------------------
                                   AH     AH     AH     AH   = artificial
                                                                 harmonic  

-|--------------------------------------------------------------------------
-|12h15p14p12--12h14p12-----12h15p14p12--12h14p12-----12h15p14p12---12h14p12
-|--------------------------------------------------------------------------
-|--------------------------------------------------------------------------
-|--------------------------------------------------------------------------
-|--------------------------------------------------------------------------

-|-12-----15p14p12---15p14p12----15p14p12----15p14p12-----15p14p12-----15p14p12-
-|------------------------------------------------------------------------------
-|------------------------------------------------------------------------------
-|------------------------------------------------------------------------------
-|------------------------------------------------------------------------------
-|------------------------------------------------------------------------------

-|--14--17p15p14---17p15p14---17p15p14---17p15p14----------15--19p17p15------
-|---------------------------------------------------------------------------
-|---------------------------------------------------------------------------
-|---------------------------------------------------------------------------
-|---------------------------------------------------------------------------
-|---------------------------------------------------------------------------

-|--19p17p15---19p17p15---19p17p15--15---17---21b23-21b23-21b23-21b23---
-|----------------------------------------------------------------------
-|----------------------------------------------------------------------
-|----------------------------------------------------------------------
-|----------------------------------------------------------------------
-|----------------------------------------------------------------------



then you play the pre chorus, then the chorus x 8!! THEN

around 4 minutes:

OUTRO (X2)   

-|----------------------------------------------------------------------
-|----------------------------------------------------------------------
-|----------------------------------------------------------------------
-|-------------------------5-----------------------------------5--------
-|---------2--------2------3----7----5-------------2-----------3--7---5-
-|-0-2-3-5---5-3-2--0-----------5----3----0-2-3-5----5-3-2--0-----5---3-
   ^ ^ ^ ^ ^ ^ ^ ^                        ^ ^ ^ ^  ^ ^ ^ ^ 
           
  Final Riff (all Palm Muted)
-|------------------------------------------------------------------------
-|------------------------------------------------------------------------
-|------------------------------------------------------------------------
-|------------------------------------------------------------------------
-|--------2------------------2------------------2------------------2------
-|0-2-3-5---5-3-2---0-2-3-5----5-3-2---0-2-3-5-----5-3-2---0-2-3-5---5-3-2
  

-|-----------------------------------------------------------------
-|-----------------------------------------------------------------
-|-----------------------------------------------------------------
-|-----------------------------------------------------------9\----
-|--------2-----------------2-----------------2---3---5------7\----
-|0-2-3-5---5-3-2---0-2-3-5---5-3-2---0-2-3-5---3---5---7----------


Please Rate This Tab. Hope There is not 2 many problems.
Enjoy!
            
Submit corrections

comments powered by Disqus
↑ Back to top | Gary Moore Tabs for Hiroshima. Lyrics for acoustic guitar and electric guitar. 1 Tablatures and chords are parodies/interpretations of the original songs. You may use it for private study, scholarship, research or language learning purposes only