>
 >
Empty Rooms

Empty Rooms Guitar Tabs

Gary Moore - Empty Rooms chords, tabs, tablatures, lyrics

Guitar lessons | Add/correct | Request | Top 50 tabs Artists:  A B C D E F G H I J K L M N O P Q R S T U V W X Y Z 0-9

Empty Rooms Guitar Tabs – Gary Moore

CD, Sheet music, Poster

Do you like Empty Rooms? Share with your friends now
ChordsTabsTabs v2Tabs v3Tabs v4Ukulele
              Gary Moore - Empty Rooms                                    


                                                                      
     E  E  E  E  E  E  E  E     E  E  E  E  E  E  E  E   
E||--------------0-----------|--------------0-----------|
B||--------3-----------3-----|--------3-----------3-----|
G||-----2-----2-----2-----2--|-----2-----2-----2-----2--|
D||--0-----------------------|--------------------------|
A||--------------------------|--3-----------------------|
E||--------------------------|--------------------------|


  E  E  E  E  E  E  Q        E  E  E  E  E  E  Q       E  E  E  E  E  E  Q     
--------------0-----1----|--------------------------|-------------------------|
--------3----------------|--10-----8-----6-----5----|--6--------5--L----------|
-----2-----2-----2-------|--------------------------|-----7-----------5-------|
-------------------------|------7-----7-----7-------|--------7-----------5----|
-------------------------|--------------------------|--5----------------------|
--3----------------------|---6-----------8----------|-------------------------|


  E  E  E  E  E  E  Q       E  E  E  E  E  E  Q       E  E  E  E  E  E  Q     
-------------------------|-------------------------|-------------------------|
--6--------5--L----------|--6--------5--L----------|--6--------5--L----------|
-----7-----------5-------|-----7-----------5-------|-----7-----------5-------|
--------7-----------5----|--------7-----------5----|--------7-----------5----|
--5----------------------|--5----------------------|--5----------------------|
-------------------------|-------------------------|-------------------------|
              [INTRO]      Loneliness is your           only friend.
              [Fill A]     You see her face            in every crowd.

  E  E  E  E  E  E  Q       E  E  E  E  E  E  Q       E  E  E  E  E  E  Q     
-------------------------|-------------------------|-------------------------|
--6--------5--L----------|--6--------5--L----------|--6--------5--L----------|
-----7-----------5-------|-----7-----------5-------|-----7-----------5-------|
--------7-----------5----|--------7-----------5----|--------7-----------5----|
--5----------------------|--5----------------------|--5----------------------|
-------------------------|-------------------------|-------------------------|
A broken heart that just won't mend                  Is the price you pay.
You hear her voice, but you're still proud           So you turn away.

  E  E  E  E  E  E  Q       E  E  E  E  E  E  Q       E  E  E  E  E  E  Q     
-------------------------|-------------------------|-------------------------|
--6--------5--L----------|--6--------5--L----------|--6--------5--L----------|
-----7-----------5-------|-----7-----------5-------|-----7-----------5-------|
--------7-----------5----|--------7-----------5----|--------7-----------5----|
--5----------------------|--5----------------------|--5----------------------|
-------------------------|-------------------------|-------------------------|
             [Harm.]       It's hard to take        when love grows old. [Harm.]
         [Fill B]          You tell yourself       that you'll be strong. [Fill C]

  E  E  E  E  E  E  Q       E  E  E  E  E  E  Q       E  E  E  E  E  E  Q     
-------------------------|-------------------------|-------------------------|
--6--------5--L----------|--6--------5--L----------|--6--------5--L----------|
-----7-----------5-------|-----7-----------5-------|-----7-----------5-------|
--------7-----------5----|--------7-----------5----|--------7-----------5----|
--5----------------------|--5----------------------|--5----------------------|
-------------------------|-------------------------|-------------------------|
The days are long and the nights turn cold           When it fades away.
But your heart tells you                             This time you're wrong.

  E  E  E  E  E  E  Q       W                   W                 
-------------------------|--1----------------|-------------------|
--6--------5--L----------|--1----------------|--1----------------|
-----7-----------5-------|--2----------------|--0----------------|
--------7-----------5----|--3----------------|--2----------------|
--5----------------------|-------------------|--3----------------|
-------------------------|-------------------|-------------------|
                        You hope that    she will change her mind

  W                   H.           Q       W                 
--3----------------|--------------------|-------------------|
--3----------------|--3------------5----|--6----------------|
--3----------------|--3------------5----|--7----------------|
--5----------------|--3------------5----|--7----------------|
-------------------|--1------------3----|--5----------------|
-------------------|--------------------|-------------------|
But the days drift on and on.

  H.           Q       H        H           H.           Q     
--------------------|--5-----------------|--------------------|
--5------------5----|--3--------5--------|--6------------5----|
--5------------5----|--3--------5--------|--7------------5----|
--5------------5----|--3--------5--------|--8------------5----|
--3------------3----|--------------------|--------------------|
--------------------|--------------------|--------------------|
You'll never know the reason why she's gone.

  W                   W                   H.           Q     
--1----------------|--0----------------|--------------------|
--3----------------|--1----------------|--3-----------------|
--2----------------|--0----------------|--3------------5----|
--0----------------|-------------------|--5------------3----|
-------------------|--3----------------|---------------0----|
-------------------|-------------------|--3-----------------|
Empty rooms          Where we learn to live without love.

  H.           Q       W                   W                 
--------------------|-------------------|--0----------------|
--3------------5----|--6----------------|--1----------------|
--3------------5----|--7----------------|--0----------------|
--3------------5----|--7----------------|-------------------|
--1------------3----|--5----------------|--3----------------|
--------------------|-------------------|-------------------|
                     Empty rooms          Where we learn to live

  H.           Q       W                   
---------------5----|--L----------------||
--3------------6----|--L----------------||
--3------------7----|--L----------------||
--5------------8----|--L----------------||
--------------------|-------------------||
--3-----------------|-------------------||
without love.

[Classic guitar w/ Guitar 2]
[SOLO]
[Outro]




[INTRO]
     Q    E   E   Q     Q         H         H         
E||--------------12----12b----|----------------------|
B||----------10---------------|--10~--------L--------|
G||---------------------------|----------------------|
D||---------------------------|----------------------|
A||---------------------------|----------------------|
E||---------------------------|----------------------|

  Q.      E   Q     E  E      Q      Q     Q     E  E   
-------------12----13-----|--15b----15----13----12-----|
--L------10---------------|----------------------------|
--------------------------|----------------------------|
--------------------------|----------------------------|
--------------------------|----------------------------|
--------------------------|----------------------------|

   Q.       E  H            Q     H.               W                  
--12br------L--L--------|--10~----L------------|---------------------|
------------------------|----------------------|--10~----------------|
------------------------|----------------------|---------------------|
------------------------|----------------------|---------------------|
------------------------|----------------------|---------------------|
------------------------|----------------------|---------------------|
                                                       Lonelines.....


[Harm.]
  W                   H        Q    E    E       Q    H.            
-------------------|------------------------|----------------------|
-------------------|------------------------|----------------------|
-------------------|------------------------|--<>7----L------------|
-------------------|-------------------<>7--|----------------------|
-------------------|------------------------|----------------------|
-------------------|------------------------|----------------------|


[Fill A]
  W                   E  S   S  S   S  S   S  S   S  S   S  S   S  S   S   
-------------------|------------------------------------------------------|
-------------------|------------------------------------------------------|
-------------------|-----9h-10p-9h-10p-9h-10p-9h-10p-9h-10p-9h-10p-9h-10S-|
-------------------|------------------------------------------------------|
-------------------|------------------------------------------------------|
-------------------|------------------------------------------------------|


[Fill B]
  W                    E   E   E   E  E   E   E   E   
-------------------|--10-----------------------------|
-------------------|------10---------------------13--|
-------------------|----------10------9--10--12------|
-------------------|--------------12-----------------|
-------------------|---------------------------------|
-------------------|---------------------------------|

   E   E   E   E  E   E   E   E       Q     H        Q     
--10------------------------------|-----------------------|
------10---------------------13S--|--10~----L-------------|
----------10------9--10--12-------|-----------------------|
--------------12------------------|-----------------------|
----------------------------------|-----------------------|
----------------------------------|-----------------------|


[Fill C]
  H        Q    E.   S    W                    W                 
-----------------------|--------------------|-------------------|
-----------------------|--------------------|-------------------|
-----------------------|--------------------|-------------------|
----------------5p---3-|--------------------|-------------------|
-----------------------|--5~----------------|-------------------|
-----------------------|--------------------|-------------------|



[Classic guitar]                          ^                 
  W                   W                    W                 
-------------------|-------------------|--10----------------|
-------------------|-------------------|--10----------------|
-------------------|-------------------|--10----------------|
-------------------|-------------------|--12----------------|
-------------------|-------------------|--------------------|
-------------------|-------------------|---0----------------|

   ^                                                                         
                |--3--|                                                      
   H.           E  E  E      H.            S S  E     H.            S S  E   
---8---------------------|-------------------------|------------------------|
---8---------------------|-------------------------|------------------------|
---9---------------------|-------------------------|------------------7S-9--|
--10---------------7--9--|--10~--------------7h-9--|--7~------------L-------|
-------------------------|-------------------------|------------------------|
-------------------------|-------------------------|------------------------|

                   |--3--|                              
  H         E   E  E  E  E      H         E  E  E  S S  
----------------------------|--------------------------|
----------------------------|--------------------------|
--7~--------L---------------|--------------------------|
---------------10--L--9--7--|----------------------2-5-|
----------------------------|--10S--------L--L---------|
----------------------------|--------------------------|

  H         E  Q    E      H.           E  S S    W                 
------------------------|----------------------|-------------------|
------------------------|---------------3------|-------------------|
--2~--------L--4----5S--|--7---------------5-4-|-------------------|
------------------------|----------------------|--7----------------|
------------------------|----------------------|-------------------|
------------------------|----------------------|-------------------|



[Guitar 2]
  E   E   E   E   E   E  E   E     E   E   E   E   E   E  E   E   
---------12------10------8------|---------12------10------8------|
-----10------10------10-----10--|-----10------10------10-----10--|
--------------------------------|--------------------------------|
--------------------------------|--------------------------------|
--------------------------------|--------------------------------|
--------------------------------|--------------------------------|

  E  E   E  E  E  E  E  E     E  E  E  E  E  E  E  E   
--------10-----8-----7-----|--------7-----5-----3-----|
-----8------8-----8-----8--|-----5-----5-----5-----5--|
---------------------------|--------------------------|
---------------------------|--------------------------|
---------------------------|--------------------------|
---------------------------|--------------------------|

  E  E  E  E  E  E  E  E     E  E   E  E  E  E  E  E   
--------8-----7-----5-----|--------10-----8-----7-----|
-----6-----6-----6-----6--|-----8------8-----8-----8--|
--------------------------|---------------------------|
--------------------------|---------------------------|
--------------------------|---------------------------|
--------------------------|---------------------------|

  E   E   E   E  E   E  E   E      W                   W                 
---------12--10--8------8--12--|--17----------------|-------------------|
-----10-------------10---------|--------------------|-------------------|
-------------------------------|--------------------|-------------------|
-------------------------------|--------------------|-------------------|
-------------------------------|--------------------|-------------------|
-------------------------------|--------------------|-------------------|



[Solo]
   Q      H         E.   S     H         E  E  E.  S  
------------------------10-|-------------------------|
--13b~----L--------13------|--10~--------L-----8---6-|
---------------------------|-------------------------|
---------------------------|-------------------------|
---------------------------|-------------------------|
---------------------------|-------------------------|

             \0/                                        
  Q.      E  E   E    E.  S    Q.      S S E  E  E  E   
----------------------------|--------------------------|
----------------------------|--------------------------|
--7~------7--5---7----------|--------------------------|
--------------------7g5---3-|-----------------2--3--5--|
----------------------------|--5~--------3-5-----------|
----------------------------|----------3---------------|

                  |--3--|                                
    H        Q    E  E  E     Q     Q    E.  S E   S  S  
---------------------------|----------------------------|
---------------------------|-------------------------17-|
---------------------------|----------------------19----|
--5g7--------L----L--7--8--|--5~----L----L---L----------|
---------------------------|----------------------------|
---------------------------|----------------------------|

       |---3---|                                                          
   E   S   S   S  E   E   E   E   E   E      E   Q    E  E   E   E   E    
---------------------------------17--20--|--20b--L----L--L--20b--L--20b--|
--18--17h-18p-17-----17--18--20----------|-------------------------------|
-----------------19----------------------|-------------------------------|
-----------------------------------------|-------------------------------|
-----------------------------------------|-------------------------------|
-----------------------------------------|-------------------------------|

   H         H           H        H           W                 
--20~--------L--------|--L-----------------|-------------------|
----------------------|--------------------|-------------------|
----------------------|--------------------|-------------------|
----------------------|--------------------|-------------------|
----------------------|--------------------|-------------------|
----------------------|--------------------|-------------------|



[Outro]

  W                   Q    E   E   Q     Q         Q     H.            
-------------------|--------------12----12b----|----------------------|
-------------------|----------10---------------|--10~----L------------|
-------------------|---------------------------|----------------------|
-------------------|---------------------------|----------------------|
-------------------|---------------------------|----------------------|
-------------------|---------------------------|----------------------|

  Q.      E   Q     Q        Q      Q     Q     Q      
-------------12----13----|--15b----15----13----12~----|
--L------10--------------|----------------------------|
-------------------------|----------------------------|
-------------------------|----------------------------|
-------------------------|----------------------------|
-------------------------|----------------------------|

  Q    E   E   Q     Q         H         H           Q.      E   Q     E  E   
--L-----------12----12b----|----------------------|-------------12----13-----|
----------10---------------|--10~--------L--------|--L------10---------------|
---------------------------|----------------------|--------------------------|
---------------------------|----------------------|--------------------------|
---------------------------|----------------------|--------------------------|
---------------------------|----------------------|--------------------------|

   Q      Q      Q      Q        H        H           H         H         
--18b----18~----17~----15~----|--L-----------------|---------------------|
------------------------------|--------------------|---------------------|
------------------------------|--------------------|--7S--------x--------|
------------------------------|--------------------|--7S--------x--------|
------------------------------|--------------------|--5S--------x--------|
------------------------------|--------------------|---------------------|



Duration Legend
---------------
W - whole
H - half
Q - quarter
E - 8th
S - 16th
T - 32nd
X - 64th
. - note dotted
|-n-|  - n-tuplets


Tablature Legend
----------------
L - tied note
x - dead note
g - grace note
(n) - ghost note
> - accentuded note
NH - natural harmonic
AH - artificial harmonic
TH - tapped harmonic
SH - semi harmonic
PH - pitch harmonic
h - hammer on
p - pull off
b - bend
br - bendRelease
pb - preBend
pbr - preBendRelease
brb - bendReleaseBend
\n/ - tremolo bar dip
\n - tremolo bar dive
-/n - tremolo bar Release up
/n\ - tremolo bar inverted dip
/n - tremolo bar return
-\n - tremolo bar Release down
S - shift slide
s - legato slide
/ -  slide into from below or out of upwards
\ -  slide into from above or out of downwards
~ - vibrato
W - wide vibrato
tr - trill
TP - tremolo picking
T - tapping
S - slap
P - pop
< - fade in
^ - brush up
v - brush down





Comments


Popular Gary Moore tabs & chords
The Loner Bass Tabs
Crying In The Shadows Chords
Empty Rooms Chords
Just Can't Let You Go Chords
Cold Day In Hell Tabs
Parisienne Walkways 1 Tabs
Parisienne Walkways 2 Tabs
The Prophet Tabs
Falling In Love With You Ukulele
One Day Ukulele


Song lyrics



↑ Back to top | Tablatures and chords are parodies/interpretations of the original songs. You may use it for private study, scholarship, research or language learning purposes only
© 2014 AZChords.com Contact us | Privacy policy | DMCA | Add/correct tabs | Request tabs | Top 50 tabs