» » »

Garbage, Milk Chords (ver.2)

Artists:  A B C D E F G H I J K L M N O P Q R S T U V W X Y Z # 

Milk Chords (ver.2)

Garbage Tabs
 Rating:
4/5 (4 votes)
Milk lessons Tabs too difficult? Try these video lessons and learn fast
                Band: Garbage
Song Title: Milk
Tuning: Normal


       Am    B     C     Cm     Em   F#
E|-----------2-----------3-----------2-----|
B|-----1-----4-----1-----4-----------2-----|
G|-----2-----4-----------5-----------3-----|
D|-----2-----4-----2-----5-----2-----4-----|
A|-----------2-----3-----3-----2-----4-----|
E|-----------------------------------2-----|

Guitar Intro:

E|----0--------0--------|--0-----------------|--------------------|-0--|---|----|
B|-15---15-13-----13-12-|----12-----0--------|--0--------0------0-|----|---|----|
G|-16---16-14-----14-12-|----12-14-----14-12-|----12-11-----11----|----|---|----|
D|----------------------|-------16-----16-14-|----14-12-----12----|----|---|----|
A|----------------------|--------------------|--------------------|----|---|----|
E|----------------------|--------------------|--------------------|----|---|----|

verse 1:
Em      Am    Em       Am              Em         Am
   I am milk, and I am red hot kitchen,  and I am cool

Em          Am           (appreg.)Em      Am   Em        Am
Cool as the deep blue ocean.         I am lost,  so I am cruel

Em         Am                 Em         Am
But I'd be love and sweetness,  if I had you

chorus1:

Am               C           F#
I'm waiting, I'm waiting for you

    Am           C           B     C
I'm waiting, I'm waiting for you

Interlude between the chorus and the second verse. Its like the intro but different. 


E|----0--------0--------|--0-----------------|
B|-15---15-13-----13-12-|----12-----0--------|
G|-16---16-14-----14-12-|----12-14-----14-12-|
D|----------------------|-------16-----16-14-|
A|----------------------|--------------------|
E|----------------------|--------------------|


Verse 2:

Em      Am   Em         Am
   I am weak,  but I am strong

Em         Am             Em          Am
And I will use my tears to  bring you home

Chorus2:

Am                   C           F#
And I'm waiting, I'm waiting for you

        Am           C           F#
And I'm waiting, I'm waiting for you

    Am          C          Em
I'm aching, I'm aching for you


Verse 3:

Em      Am   Em         Am             Em         Am
   I am milk,  and I am red hot kitchen, and I am cool

Em          Am           (appreg.)
Cool as the deep blue ocean.

Chorus 3:

Am               C           Em
I'm waiting, I'm waiting for you

        Am          C          Em
And I'm aching, I'm aching for you

        Am           C           Em
And I'm waiting, I'm waiting for you

        Am           C           Em
And I'm waiting, I'm waiting for you

I'm waiting, I'm waiting, I'm waiting for you
            
Submit corrections

comments powered by Disqus
↑ Back to top | Garbage Chords for Milk. Lyrics for acoustic guitar and electric guitar. Tablatures and chords are parodies/interpretations of the original songs. You may use it for private study, scholarship, research or language learning purposes only