» » »

Milk Tabs (ver.1)

Artists:  A B C D E F G H I J K L M N O P Q R S T U V W X Y Z # 

Milk Tabs (ver.1)

Garbage
Rating:
0/5 (0 votes)

Hard to play? Try these video lessons and learn fast.
                This is a tab for the siren mix version of the song.

Guitar Intro:

  (Am)                 (Em)              (Am)                 (Em)

e|-7-----7--5-------5--3-------3--2-------7-----7--5-------5--3-------|
B|-8--0----------0----------0-------------8--0----------0-------------|
G|--------------------------------------------------------------------|
D|--------------------------------------------------------------------| x 2
A|--------------------------------------------------------------------|
E|--------------------------------------------------------------------|


Verse 1:

       Am  Em7
I am milk,    
      Am             Dsus2
I am red hot kitchen,    
           Am  Em7
And I am cool,    
              Am             Dsus2
Cool as the deep blue ocean.
       Am  Em7
I am lost,
          Am   Dsus2
So I am cruel,
             Am                Em7
But I’d be love and sweetness,
          Am  Dsus2
If I had you.


Chorus 1:

    Em
I'm waiting
    C
I'm waiting
     F#  F#
For you
    Am
I'm waiting
    C
I'm waiting
     B   C
For you


  (Am)                 (Em)              (Am)                 (Em)

e|-7-----7--5-------5--3-------3--2-------7-----7--5-------5--3-------|
B|-8--0----------0----------0-------------8--0----------0-------------|
G|--------------------------------------------------------------------|
D|--------------------------------------------------------------------|
A|--------------------------------------------------------------------|
E|--------------------------------------------------------------------|


Verse 2:

       Am  Em7
I am weak,    
            Am   Dsus2
But I am strong,    
       Am             Em7
I can use my tears to,    
            Am  Dsus2
Bring you home.

Chorus 2:

    Em
I'm waiting
    C
I'm waiting
     F#  F#
For you
    Am
I'm waiting
    C
I'm waiting
     F#  F#
For you
    Am
I'm waiting
    C
I'm waiting
     Em  Em  Em  Em
For you


  (Am)                 (Em)              (Am)                 (Em)

e|-7-----7--5-------5--3-------3--2-------7-----7--5-------5--3-------|
B|-8--0----------0----------0-------------8--0----------0-------------|
G|--------------------------------------------------------------------|
D|--------------------------------------------------------------------| x 2
A|--------------------------------------------------------------------|
E|--------------------------------------------------------------------|


Verse 3:

       Am  Em7
I am milk,    
      Am             Dsus2
I am red hot kitchen,    
           Am  Em7
And I am cool,    
              Am             Dsus2
Cool as the deep blue ocean.

Chorus 3:

    Em
I'm waiting
    C
I'm waiting
     Em  Em7
For you
    Am
I'm waiting
    C
I'm waiting
     Em  Em7
For you
    Am
I'm waiting
    C
I'm waiting
     Em  E7
For you
    Am
I'm aching
    C
I'm aching
     Em  Em7
For you

Outro: (same as the intro)

    Am       Am
I'm waiting, 
     Em  Em
For you.
            
Hard to play? Try these video lessons and learn fast. | Correct




comments powered by Disqus
↑ Back to top | Tablatures and chords are parodies/interpretations of the original songs. You may use it for private study, scholarship, research or language learning purposes only