» » »

Girl Don't Come Tabs (ver.2)

Artists:  A B C D E F G H I J K L M N O P Q R S T U V W X Y Z # 

Girl Don't Come Tabs (ver.2)

Garbage
Rating:
0/5 (0 votes)
Tabs too difficult? Try these video lessons and learn fast.
                Band: Garbage
Song Title: Girl Don't Come
Tuning: Eb Ab Db Gb Bb Eb

Chords Use For This Song

     C5    D5    D#5   F5    G5
Eb|-------------------------------|
Bb|-------------------------------|
Gb|---6-----8-----9---------------|
Db|---6-----8-----9-----4-----6---|
Ab|---4-----6-----7-----4-----6---|
Eb|---------------------2-----4---|

Verse 1:
Song Goes Pretty Fast Listen To Song For Chord Changes

Repeat Part I: 4 Times    Part II
Eb|----------------------|-----------------------------------|
Bb|----------------------|-----------------------------------|
Gb|-------------6----9---|-----------6---9---8---8---8---8---|
Db|---6----4----6----9---|---6---4---6---9---8---8---8---8---|
Ab|---6----4----4----7---|---6---4---4---7---6---6---6---6---|
Eb|---4----2---------0---|---4---2---------------------------|

        
Girl don't come
If it'sall beensaid and done
Don't hang around
Let them kick back off the ground 
Let them kick back off the ground 

Girl don't come 
He's got nothing left to lose 
But that's all right 
That could well change overnight 
He'll want to take that pretty head 
Lay down in someone else's bed 


Chorus:

Guitar I:
Eb|----------------------|
Bb|----------------------|
Gb|-------------6----9---|
Db|---6----4----6----9---|
Ab|---6----4----4----7---|
Eb|---4----2---------0---|

Guitar II Lead:
Eb|------------------------|
Bb|------------------------|
Gb|---13-13\11--13-13\11---|
Db|------------------------|
Ab|---11-11\9---11-11\9----|
Eb|------------------------|

Girl don't come 
Girl don't come 
Girl don't come 
Girl don't come 

Interlude:

Guitar I:
Eb|-------------------------------------|---------------------------------|
Bb|-------------------------------------|---------------------------------|
Gb|---8-8-8-8-8-8-8-8-8-8-8-8-8-8-8-8---|---8-8-8-8-8-8-8-8-8-8-8-8-8-8---|
Db|---8-8-8-8-8-8-8-8-8-8-8-8-8-8-8-8---|---8-8-8-8-8-8-8-8-8-8-8-8-8-8---|
Ab|---6-6-6-6-6-6-6-6-6-6-6-6-6-6-6-6---|---6-6-6-6-6-6-6-6-6-6-6-6-6-6---|
Eb|-------------------------------------|---------------------------------|

Guitar II Lead: Octaves

Eb|-------------------|----------------|----------------|-------------|
Bb|-------------------|----------------|----------------|-------------|
Gb|---8---4-3-----3-4-|-8--4-3--6--4-3-|-8--4-3-----3-4-|-8--4-3--6---|
Db|---X---X-X--4--X-X-|-X--X-X--X--X-X-|-X--X-X--4--X-X-|-X--X-X--X---|
Ab|---6---2-1--X--1-2-|-6--2-1--4--2-1-|-6--2-1--X--1-2-|-6--2-1--4---|
Eb|------------2------|----------------|---------2------|-------------|

No Guitar For This Part:

If you want my sympathy my dear 
You better not come near my dear 
I think it's fair to say my dear 
You better see my way 
You better see my way [D5] X10

Outro:
Eb|----------------------|
Bb|----------------------|
Gb|-------------6----9---|
Db|---6----4----6----9---|
Ab|---6----4----4----7---|
Eb|---4----2---------0---|

Girl don't come 
Girl don't come 
Girl don't come 
Girl don't come 
Girl don't come 
Girl don't come (If you want my sympathy my dear) 
Girl don't come (You better not come near my dear) 
Girl don't come (I think it's fair to say my dear) 
Girl don't come (You better see my way my dear) 
Girl don't come (If you want my sympathy my dear) 
Girl don't come (You better not come near my dear) 
Girl don't come (I think it's fair to say my dear) 
Girl don't come (You better see my way my dear). 
            
Tabs too difficult? Try these video lessons and learn fast.


comments powered by Disqus
↑ Back to top | Tablatures and chords are parodies/interpretations of the original songs. You may use it for private study, scholarship, research or language learning purposes only