» » »

Garbage, Girl Don't Come Tabs (ver.1)

Artists:  A B C D E F G H I J K L M N O P Q R S T U V W X Y Z # 

Girl Don't Come Tabs (ver.1)

Garbage Tabs
Rating:
0/5 (0 votes)
Hard to play? Try these video lessons and learn fast.
                (It's easiest tuned down half a step, but the rest up the album is a 
whole step at least, so that's where I play it and how it's written 
here.)

            just the basics
-|------------------|-------------------|
-|------------------|-------------------|
-|------------------|-5----5----8-8-8-7-|
-|-5----5----3----3-|-------------------|
    then...
-|------------------|--------------|
-|------------------|--------------|
-|------------------|-7------------|
-|-5----5----3----3-|--------------|
        and somewhere in the middle....
|------------------|----------------|-----------------|---------------|
|------------------|----------------|-----------------|---------------|
|------------------|-7-----15----14-|-10-----14----15-|-7-----15----14| 
|-5----5----3----3-|----------------|-----------------|---------------|


-|-----------------|
-|-----------------|
-|-17-----15----14-|    play twice, except on second time, stop at 
-|-----------------|    the 17th fret on the las bar. (get it?)

    I don't think the bass does that part, but I do it anyway.
            

comments powered by Disqus
↑ Back to top | Garbage Tabs for Girl Don't Come. Lyrics for acoustic guitar and electric guitar. Tablatures and chords are parodies/interpretations of the original songs. You may use it for private study, scholarship, research or language learning purposes only