» » »

Garbage, Bleed Like Me Tabs (ver.3)

Artists:  A B C D E F G H I J K L M N O P Q R S T U V W X Y Z # 

Bleed Like Me Tabs (ver.3)

Garbage Tabs
 Rating:
4/5 (5 votes)
Bleed Like Me lessons Tabs too difficult? Try these video lessons and learn fast
                Tuning: C# A D G B e


Intro
e |-------------------------------------|----|
B |-------------------------------------|----|
G |-------------------------------------|-X2-|
D |-------------------------------------|----|
A |--3------3---3-----4------4---4------|----|
C#|----7--7---7-----7---0--0---0-----0--|----|


Verse 1: Avalanche is sullen and too thin...
e |-------------------------------------|----|-------------------------------------|----|
B |-------------------------------------|----|-------------------------------------|----|
G |-------------------------------------|-X3-|-------------------------------------|-X2-|
D |-------------------------------------|----|-------------------------------------|----|
A |--3------3---3-----4------4---4------|----|--2------2---2-----4------4---4------|----|
C#|----7--7---7-----7---0--0---0-----0--|----|----5--5---5-----5---0--0---0-----0--|----|


Verse 2: Chris is all dressed up and acting coy...
e |-------------------------------------|----|-------------------------------------|----|
B |-------------------------------------|----|-------------------------------------|----|
G |-------------------------------------|-X3-|-------------------------------------|-X2-|
D |-------------------------------------|----|-------------------------------------|----|
A |--3------3---3-----4------4---4------|----|--2------2---2-----4------4---4------|----|
C#|----7--7---7-----7---0--0---0-----0--|----|----5--5---5-----5---0--0---0-----0--|----|


Fill
e |-----------------------|----|
B |--1-----1-----0-----4~-|----|
G |----1-----1-----1------|-X2-|
D |------1-----1-----1----|----|
A |-----------------------|----|
C#|-----------------------|----|


Verse 3: Doodle takes dad's scissors to her skin...
e |-------------------------------------|----|-------------------------------------|----|
B |-------------------------------------|----|-------------------------------------|----|
G |-------------------------------------|-X3-|-------------------------------------|-X2-|
D |-------------------------------------|----|-------------------------------------|----|
A |--3------3---3-----4------4---4------|----|--2------2---2-----4------4---4------|----|
C#|----7--7---7-----7---0--0---0-----0--|----|----5--5---5-----5---0--0---0-----0--|----|


Verse 4: Therapy is Speedie's brand new drug...
e |-------------------------------------|----|-------------------------------------|----|
B |-------------------------------------|----|-------------------------------------|----|
G |-------------------------------------|-X3-|-------------------------------------|-X2-|
D |-------------------------------------|----|-------------------------------------|----|
A |--3------3---3-----4------4---4------|----|--2------2---2-----4------4---4------|----|
C#|----7--7---7-----7---0--0---0-----0--|----|----5--5---5-----5---0--0---0-----0--|----|


Fill
e |-----------------------|----|---------------------------|
B |--1-----1-----0-----4~-|----|--1-----1-----4-----4------|
G |----1-----1-----1------|-X3-|----1-----1-----1-----1----|
D |------1-----1-----1----|----|------1-----1-----1-----1--|
A |-----------------------|----|---------------------------|
C#|-----------------------|----|---------------------------|

e |-------------------------------------|----|
B |-------------------------------------|----|
G |-------------------------------------|-X2-|
D |-------------------------------------|----|
A |--3------3---3-----4------4---4------|----|
C#|----7--7---7-----7---0--0---0-----0--|----|


Verse 5: JT gets all f**ked up in some karaoke bar...
e |-------------------------------------|----|------------------------|
B |-------------------------------------|----|------------------------|
G |-------------------------------------|-X2-|------------------------|
D |-------------------------------------|----|------------------------|
A |--3------3---3-----4------4---4------|----|--3------3---3----------|
C#|----7--7---7-----7---0--0---0-----0--|----|----7--7---7-----7--0~--|

e |-------------------------------------|----|
B |-------------------------------------|----|
G |-------------------------------------|-X4-|
D |-------------------------------------|----|
A |--2------2---2-----4------4---4------|----|
C#|----5--5---5-----5---0--0---0-----0--|----|


Bridge: You should see my scars...
e |-------------------------------------|----|-------------------------------------|
B |-------------------------------------|----|-------------------------------------|
G |-------------------------------------|-X3-|-------------------------------------|
D |-------------------------------------|----|-------------------------------------|
A |--3------3---3-----4------4---4------|----|--2------2---2-----4------4---4------|
C#|----7--7---7-----7---0--0---0-----0--|----|----5--5---5-----5---0--0---0-----0--|

e |-------------------------------------|----|-------------------------------------|
B |-------------------------------------|----|-------------------------------------|
G |-------------------------------------|-X3-|-------------------------------------|
D |-------------------------------------|----|-------------------------------------|
A |--3------3---3-----4------4---4------|----|--2------2---2-----4------4---4------|
C#|----7--7---7-----7---0--0---0-----0--|----|----5--5---5-----5---0--0---0-----0--|


Outro: Just try to comprehend that which you'll never comprehend...
e |-------------------------------------|----|-------------------------------------|
B |-------------------------------------|----|-------------------------------------|
G |-------------------------------------|-X3-|-------------------------------------|
D |-------------------------------------|----|-------------------------------------|
A |--3------3---3-----4------4---4------|----|--2------2---2-----4------4---4------|
C#|----7--7---7-----7---0--0---0-----0--|----|----5--5---5-----5---0--0---0-----0--|

e |-------------------------------------|----|-------------------------------------|------|
B |-------------------------------------|----|-------------------------------------|------|
G |-------------------------------------|-X3-|-------------------------------------|------|
D |-------------------------------------|----|-------------------------------------|------|
A |--3------3---3-----4------4---4------|----|--2------2---2-----4------4---4------|------|
C#|----7--7---7-----7---0--0---0-----0--|----|----5--5---5-----5---0--0---0-----0--|--7~--|
            
Submit corrections

comments powered by Disqus
↑ Back to top | Garbage Tabs for Bleed Like Me. Lyrics for acoustic guitar and electric guitar. Tablatures and chords are parodies/interpretations of the original songs. You may use it for private study, scholarship, research or language learning purposes only