» » »

Garbage, Bleed Like Me Tabs (ver.2)

Artists:  A B C D E F G H I J K L M N O P Q R S T U V W X Y Z # 

Bleed Like Me Tabs (ver.2)

Garbage Tabs
 Rating:
4/5 (8 votes)
Bleed Like Me lessons Tabs too difficult? Try these video lessons and learn fast
1
                -------------------------------------------------------------------------------
                             BLEED LIKE ME - Garbage
-------------------------------------------------------------------------------

Tuning: Standard E A D G B e

This is the main 'riff' of the song:

e|---------------------------------------------------------------------------|
B|---------------------------------------------------------------------------|
G|---------------------------------------------------------------------------|
D|---------------------------------------------------------------------------|
A|--3-----3----3--------4-------4------4b5r4---------------------------------|
E|----4-4---4-------4------4-4------4----------------------------------------|

The 'chorus' part plays this:

(Hey baby can you bleed like me etc.)

e|---------------------------------------------------------------------------|
B|---------------------------------------------------------------------------|
G|---------------------------------------------------------------------------|
D|---------------------------------------------------------------------------|
A|--2-------2---2------4-------4-----4b5r4-----------------------------------|
E|-----2-2----2----2------4-4-----4------------------------------------------|

Repeat the two until this instrumental:

e|---8------8-------7------11------------------------------------------------|
B|-----9------9-------9------------------------------------------------------|
G|-------8------8-------8----------------------------------------------------|
D|---------------------------------------------------------------------------|
A|--[let these notes ring]---------------------------------------------------|
E|---------------------------------------------------------------------------|

After this, when playing the verse riff, put a small bend on each third 'C' (third fret)
as well as on the third 'C#' (4th fret)

At the end of the extended instrumental, there is a key change which I'm not 100% 
sure on, but I play this:

e|--7--------7----------7----------------------------------------------------|
B|-----8--------8-------8----------------------------------------------------|
G|--------7--------7----7----------------------------------------------------|
D|---------------------------------------------------------------------------|
A|---------------------------------------------------------------------------|
E|---------------------------------------------------------------------------|

Although the next bit is I think played on an oboe or something, this is the guitar
transcription:

e|---------------------------------------------------------------------------|
B|-12-12-12-12-9p7h9---------------------------------------------------------|
G|---------------------------------------------------------------------------|
D|---------------------------------------------------------------------------|
A|---------------------------------------------------------------------------|
E|---------------------------------------------------------------------------|

Then repeat the verse and chorus and play the verse for the outro.


| /  slide up
| \  slide down
| h  hammer-on
| p  pull-off
| ~  vibrato
| +  harmonic
| x  Mute note
| b  Bend note
| r  Release note
===============================================================================
            
Submit corrections

comments powered by Disqus
↑ Back to top | Garbage Tabs for Bleed Like Me. Lyrics for acoustic guitar and electric guitar. 1 Tablatures and chords are parodies/interpretations of the original songs. You may use it for private study, scholarship, research or language learning purposes only