» » »

Staring At The Rude Bois Tabs (ver.2)

Artists:  A B C D E F G H I J K L M N O P Q R S T U V W X Y Z # 

Staring At The Rude Bois Tabs (ver.2)

Gallows
Rating:
0/5 (0 votes)

Hard to play? Try these video lessons and learn fast.
                Tuning: drop D


Intro

E|----------------------------------------------|
B|----------------------------------------------|
G|----------------------------------------------|
D|---12-12-12-12-12-12-12-12--7-7-7-7-7-7-7-7---| x4
A|---12-12-12-12-12-12-12-12--7-7-7-7-7-7-7-7---|
D|---12-12-12-12-12-12-12-12--7-7-7-7-7-7-7-7---|

Palm puted the first two times.

Verse

E|----------------------------------------------|
B|----------------------------------------------|
G|----------------------------------------------|
D|---12-12-12-12-12-12-12-12--7-7-7-7-7-7-7-7---| x4
A|---12-12-12-12-12-12-12-12--7-7-7-7-7-7-7-7---|
D|---12-12-12-12-12-12-12-12--7-7-7-7-7-7-7-7---|
  PM  .  .  .  .  .  .  .  .  . . . . . . . . 

Break

E|--------------------|
B|--------------------|
G|--------------------|
D|--0-0-2-2--3-3-3-3--|
A|--0-0-2-2--3-3-3-3--|
D|--0-0-2-2--3-3-3-3--|

Verse Continued.

E|----------------------------------------------|
B|----------------------------------------------|
G|----------------------------------------------|
D|---12-12-12-12-12-12-12-12--7-7-7-7-7-7-7-7---| x4
A|---12-12-12-12-12-12-12-12--7-7-7-7-7-7-7-7---|
D|---12-12-12-12-12-12-12-12--7-7-7-7-7-7-7-7---|
  PM  .  .  .  .  .  .  .  .  . . . . . . . . 

Chorus

E|---------------------|
B|---------------------|
G|--------77-55-44-----|
D|---5-------------5---| x2
A|---5-----------------|
D|---5-----------------|

E|--------------------|
B|--------------------|
G|--------------------|
D|--------------------| 
A|--------------------|
D|---3-2-3-2-3-2-3-2--|

E|---------------------|
B|---------------------|
G|--------77-55-44-----|
D|---5-------------5---| x2
A|---5-----------------|
D|---5-----------------|

E|---------------------|
B|---------------------|
G|---------------------|
D|---3--0--0--0--------| 
A|---3--0--0--0--------|
D|---3--0--0--0--------|


Verse

E|----------------------------------------------|
B|----------------------------------------------|
G|----------------------------------------------|
D|---12-12-12-12-12-12-12-12--7-7-7-7-7-7-7-7---| x4
A|---12-12-12-12-12-12-12-12--7-7-7-7-7-7-7-7---|
D|---12-12-12-12-12-12-12-12--7-7-7-7-7-7-7-7---|
  PM  .  .  .  .  .  .  .  .  . . . . . . . . 

Break

E|--------------------|
B|--------------------|
G|--------------------|
D|--0-0-2-2--3-3-3-3--|
A|--0-0-2-2--3-3-3-3--|
D|--0-0-2-2--3-3-3-3--|


Solo-type thing.

I think it is something like


E|-----------------------|
B|-----------------------|
G|-----------------------|
D|-----------------------|
A|---5-7-8-5-7-8-5-7-8---|
D|-----------------------|


Or


E|-----------------------|
B|-----------------------|
G|-----------------------|
D|---5-7-8-5-7-8-5-7-8---|
A|-----------------------|
D|-----------------------|

I'm not 100% though.


It goes into the verse about half way throught the lethal bizzle bit.



E|----------------------------------------------|
B|----------------------------------------------|
G|----------------------------------------------|
D|---12-12-12-12-12-12-12-12--7-7-7-7-7-7-7-7---| x4
A|---12-12-12-12-12-12-12-12--7-7-7-7-7-7-7-7---|
D|---12-12-12-12-12-12-12-12--7-7-7-7-7-7-7-7---|
  PM  .  .  .  .  .  .  .  .  . . . . . . . . 

Chorus

E|---------------------|
B|---------------------|
G|--------77-55-44-----|
D|---5-------------5---| x2
A|---5-----------------|
D|---5-----------------|

E|--------------------|
B|--------------------|
G|--------------------|
D|--------------------| 
A|--------------------|
D|---3-2-3-2-3-2-3-2--|

E|---------------------|
B|---------------------|
G|--------77-55-44-----|
D|---5-------------5---| x2
A|---5-----------------|
D|---5-----------------|


Outro

Goes along the lines of this.

E|---------------------|
B|---------------------|
G|---------------------|
D|---3--3--3--3--------| 
A|---3--3--3--3--------|
D|---3--3--3--3--------|

Comment and rate :)

thanks
            
Hard to play? Try these video lessons and learn fast. | Correct




comments powered by Disqus
↑ Back to top | Tablatures and chords are parodies/interpretations of the original songs. You may use it for private study, scholarship, research or language learning purposes only