» » »

Gallows, Staring At The Rude Bois Tabs (ver.1)

Artists:  A B C D E F G H I J K L M N O P Q R S T U V W X Y Z # 

Staring At The Rude Bois Tabs (ver.1)

Gallows Tabs
Rating:
0/5 (0 votes)
Staring At The Rude Bois lessons Tabs too difficult? Try these video lessons and learn fast
                                       STARING AT THE RUDE BOIS
                               GALLOWS
                                2007

TUNING:DADGBE (DROP D)

INTRO/MAIN RIFF

   Dm                F                 Dm                F
   PM---------------------------------------------------------------------]
E-------------------]-----------------]--------5---5----]-----------------]
B----6-6-6-6-6-6----]-----------------]6-6-6-6-6-6-6-6--]-----------------]
G--7-7-7-7-7-7-7----]--------------0--]7-7-7-7---7---7--]--------------0--]
D--7-------------0--]7-7-7-7-7-7-7-0--]-----------------]7-7-7-7-7-7-7-0--]
A-------------------]-----------------]-----------------]-----------------]
D-------------------]-----------------]-----------------]-----------------]

   Dm                F                 Dm                F
E-------------------]-----------------]--------5---5----]-----------------]
B--6-6-6-6-6-6-6----]-----------------]6-6-6-6-6-6-6----]-----------------]
G--7-7-7-7-7-7-7-0--]5-5-5-5-5-5-5-0--]7-7-7-7---7---0--]5-5-5-5-5-5-5----]
D----------------0--]7-7-7-7-7-7-7-0--]--------------0--]7-7-7-7-7-7-7----]
A-------------------]-----------------]-----------------]--------------0--]
D-------------------]-----------------]-----------------]-----------------]


VERSE

   Dm                F                 Dm                F
   PM-------------------------------------------------------------------
E-------------------]-----------------]-----------------]-----------------]
B--6-6-6-6-6-6-6----]-----------------]6-6-6-6-6-6-6----]-----------------]
G--7-7-7-7-7-7-7-0--]-----------------]7-7-7-7-7-7-7-0--]-----------------]
D----------------0--]7-7-7-7-7-7-7-0--]--------------0--]7-7-7-7-7-7-7-0--]
A-------------------]-----------------]-----------------]-----------------]
D-------------------]-----------------]-----------------]-----------------]

   Dm                F
   PM-----------------------]
E-------------------]-----------------]
B--6-6-6-6-6-6-6----]-----------------]
G--7-7-7-7-7-7-7-0--]5-5-5-5-5-5------]
D----------------0--]7-7-7-7-7-7-7-0--]
A-------------------]--------------0--]
D-------------------]--------------0--]


BRIDGE RIFF

   D5   E5     F5                  D5    D5   E5     F5                  D5
                    let ring----]                         let ring----]     
E------------------]------------------]------------------]-----------------]
B------------------]-----6------------]------------------]-----6-----------]
G------------------]----------5-------]------------------]----------5------]
D--0--0-2-2--2-3---]3--------------0--]--0--0-2-2--2-3---]3--------------0-]
A--0--0-2-2--2-3---]3--------------0--]--0--0-2-2--2-3---]3--------------0-]
D--0--0-2-2--2-3---]3--------------0--]--0--0-2-2--2-3---]3--------------0-]

                    

   D5   E5     F5                        
                    let ring
E------------------]------------------]
B------------------]--------6---------]
G------------------]--------5---------]
D--0--0-2-2--2-3---]3----3------------]
A--0--0-2-2--2-3---]3----3------------]
D--0--0-2-2--2-3---]3----3------------]



CHORUS

   G5
E-----------------]----------------]--------------]---------------]
B-----------------]----------------]--------------]---------------]
G---------------7-]--7-5-5-4-4---0-]------------7-]--7-5-5-4-4----]
D--5--5-5-5-5-0---]------------5-0-]5--5----------]------------5--]
A--5--5-5-5-5-----]----------------]5--5----------]---------------]
D--5--5-5-5-5-----]----------------]5--5----------]---------------]

   F5
   PM--------------------------------------------------------]
E-----------------]----------------]----------------]-----------------]
B-----------------]----------------]----------------]-----------------]
G-----------------]----------------]----------------]-----------------]
D-----------------]----------------]----------------]-----------------]
A--3--------------]----------------]---------3-2-3-2]-3-2-3-2-3-2-3-0-]
D--3-2-3-2-3-2-3-2]-3-2-3-2-3-2-3-2]-3-2-3-2-3-2-3-2]-3-2-3-2-3-2-3-0-]

   G5

E------------]----------------]----------]----------------]
B------------]----------------]--------6-]--6-5-5---------]
G----------7-]--7-5-5-4-4---0-]----------]--------7-7-4-4-]
D--5--5------]------------5-0-]5--5------]----------------]
A--5--5------]----------------]5--5------]----------------]
D--5--5------]----------------]5--5------]----------------]

                                      
   C5   F5                                     
                                     last chorus only
E---------]--------]--------]--------]--------]
B---------]--------]--------]--------]--------]
G--5----55]-5----55]-5----55]-5------]--------]
D-------33]-3----33]-3----33]-3------]-3------]
A-------33]-3----33]-3----33]-3------]-3------]
D-------33]-3----33]-3----33]-3------]-3------]


SOLO


  Gm                     Bb
E-----------------------]----------------------]
B-------3----------3----]----------------------]
G-------3----------3----]------3----------3----]
D-3--5-------3--5-------]---3----------3-------]
A-----------------------]5----------5----------]
D-----------------------]----------------------]

  Gm                     Bb
E-----------------------]----------------------]
B-------3----------3----]----------------------]
G-------3----------3----]------3----------3----]
D-3--5-------3--5-------]---3----------3-------]
A-----------------------]5----------5----------]
D-----------------------]----------------------]

  Gm                     Bb
E-----------------------]----------------------]
B-------3----------3----]----------------------]
G-------3----------3----]------3----------3----]
D-3--5-------3--5-------]---3----------3-------]
A-----------------------]5----------5----------]
D-----------------------]----------------------]

  Gm                     Bb
E-----------------------]----------------------]
B-------3----------3----]----------------------]
G-------3----------3----]------3----------3----]
D-3--5-------3--5-------]---3----------3-------]
A-----------------------]5----------5----------]
D-----------------------]----------------------]

THANKS JOE!
            
Submit corrections

comments powered by Disqus
↑ Back to top | Gallows Tabs for Staring At The Rude Bois. Lyrics for acoustic guitar and electric guitar. Tablatures and chords are parodies/interpretations of the original songs. You may use it for private study, scholarship, research or language learning purposes only