» » »

Gallows, Staring At The Rude Bois Bass tabs (ver.1)

Artists:  A B C D E F G H I J K L M N O P Q R S T U V W X Y Z # 

Staring At The Rude Bois Bass tabs (ver.1)

Gallows Tabs
Rating:
0/5 (0 votes)
Staring At The Rude Bois lessons Tabs too difficult? Try these video lessons and learn fast
                


May Not Be Exactly How They Play It But It Sounds Perfect! 




G |-------------------------------------------------------|
D |-------------------------------------------------------|
A |---5-5-5-3-5-3-0---------------------------------------|
E |-------------------------------------------------------|



G |-------------------------------------------------------|
D |--------2233------22-----------------------------------| (x2)
A |---5555--------------33--------------------------------|
E |-------------1111--------------------------------------|



G |-------------------------------------------------------|
D |--------2233-------------------------------------------| (x4)
A |---5555------------------------------------------------|
E |-------------11111111----------------------------------|



G |-------------------------------------------------------|
D |--------2233------22-----------------------------------| (x4)
A |---5555--------------33--------------------------------|
E |-------------1111--------------------------------------|



G |-------------------------------------------------------|
D |--------2233-------------------------------------------| (x4)
A |---5555------------------------------------------------|
E |-------------11111111----------------------------------|



G |-------------------------------------------------------|
D |-------------------------------------------------------| Listen
A |-------------------------------------------------------| To Song For
E |-0-3-333333333-----0-3-333333333-----------------------| Rhythm



G |-------------------------------------------------------| not sure
D |-------------------------------------------------------| how many
A |-------------------------------------------------------| just follow
E |-1-0-1-0-1-0-1-0-1-0-1-0-1-0-1-0-1-0-1-0-1-0-1-0-------| the song



G |-------------------------------------------------------|
D |------------22---------22---------22-------------------| (x4)
A |----------33--33-----33--33-----33--33-----------------|
E |-3~~~---1----------1----------1------------------------|


G |-------------------------------------------------------|
D |--------2233-------------------------------------------| (x4)
A |---5555------------------------------------------------|
E |-------------11111111----------------------------------|



G |-------------------------------------------------------|
D |--------2233------22-----------------------------------| (x4)
A |---5555--------------33--------------------------------|
E |-------------1111--------------------------------------|



Bridge (Just before Bizzle come in)
G |--------------------------------------------------------|
D |--------------------------------------------------------| (x2)
A |5555-7777-12121212-8888----5555-7777-8888-10101010------|
E |--------------------------------------------------------|



G |--------------------------------------------------------|
D |--------------------------------------------------------| (x2)
A |----55555555-------------55555555-----------------------|
E |--------------00000000-------------00000000-------------|



G |-------------------------------------------------------|
D |--------2233-------------------------------------------| (x4)
A |---5555------------------------------------------------|
E |-------------11111111----------------------------------|



G |-------------------------------------------------------|
D |-------------------------------------------------------| Listen
A |-------------------------------------------------------| To Song For
E |-0-3-333333333-----0-3-333333333-----------------------| Rhythm




G |-------------------------------------------------------| Not Sure
D |-------------------------------------------------------| How many
A |-------------------------------------------------------| But Follow
E |-1-0-1-0-1-0-1-0-1-0-1-0-1-0-1-0-1-0-1-0-1-0-1-0-------| the song



G |-------------------------------------------------------|
D |------------22---------22---------22-------------------| (x4)
A |----------33--33-----33--33-----33--33-----------------|
E |-3~~~---1----------1----------1------------------------|



End On The 3rd Fret Of The E String!

Please comment and rate!
            

comments powered by Disqus
↑ Back to top | Gallows Bass for Staring At The Rude Bois. Lyrics for acoustic guitar and electric guitar. Tablatures and chords are parodies/interpretations of the original songs. You may use it for private study, scholarship, research or language learning purposes only