>
 >
Just Because You Sleep Next To Me Doesn't Mean You're Safe

Just Because You Sleep Next To Me Doesn't Mean You're Safe Guitar Tabs

Gallows - Just Because You Sleep Next To Me Doesn't Mean You're Safe chords, tabs, tablatures, lyrics

Guitar lessons | Add/correct | Request | Top 50 tabs Artists:  A B C D E F G H I J K L M N O P Q R S T U V W X Y Z 0-9

Just Because You Sleep Next To Me Doesn't Mean You're Safe Guitar Tabs – Gallows

CD, Sheet music, Poster

Do you like Just Because You Sleep Next To Me Doesn't Mean You're Safe? Share with your friends now
Bass TabsTabsTabs v2
-------------------------------------------------------------------------------
                             SONG NAME - Band Name
-------------------------------------------------------------------------------

Tuning:

                  |  Gallows   |
      | Just Because You Sleep Next To Me Doesn't Mean Your Safe  |

Tuning:Drop D

May be a little messy but the parts are all there.


Intro:   oo:oo

Guitar One.

e|---------------------------------------------------------------------|
B|-10-10-------10-10-------10--10--10-10-----10-10-------10-10--14-14--|
G|-13-13-------13-13-------13--13--13-13-----13-13-------13-13--17-17--|
D|--------------------------------------------------------------------|
A|-------0560--------0560---------------0560-------0560----------------|
D|-------0560--------0560---------------0560-------0560----------------|

Guitar Two.

e|----------------------------------------------------------------------|
B|----------------------------------------------------------------------|
G|--7-7--------7-7---------7--7--7-7---------7-7---------7-7--10-10-----|
D|--6-6--------6-6--------6--6--6-6---------6-6---------6-6--9--9------|
A|--5-5--0560--5-5---0560--5--5--5-5---0560--5-5--0560---5-5--8--8------|
D|-------0560--------0560--------------0560-------0560------------------|




Guitar One.

e|------------------------------------------------------------------------------|
B|-10-10-------10-10-------10--10--10--10-10-----10-10-------10-10--------------|
G|-13-13-------13-13-------13--13--13--13-13-----13-13-------13-13--------------|
D|----------------------------------------------------------------3-0-(0)-(0)--|
A|-------0560--------0560-------------------0560-------0560--------3-0-(0)-(0)--|
D|-------0560--------0560-------------------0560-------0560--------3-0-(0)-(0)--|


Guitar Two.

e|------------------------------------------------------------------------------|
B|------------------------------------------------------------------------------|
G|--7-7--------7-7---------7--7--7---7-7---------7-7---------7-7----------------|
D|--6-6--------6-6--------6--6--6---6-6---------6-6---------6-6----3-0-(0)-(0)-|
A|--5-5--0560--5-5---0560--5--5--5---5-5---0560--5-5--0560---5-5----3-0-(0)-(0)-|
D|-------0560--------0560------------------0560-------0560----------3-0-(0)-(0)-|



Pre Verse:  00:10

Guitar One.

e|--------------------------------------------------------------------------|
B|--------------------------------------------------------------------------|
G|---------------XX/--pick-scrape-------------------------------------------|
D|--------------XX/------------------------------------------------------|
A|-------------------------------------------------------------------------|
D|--00035666653000003566665300----------------------------------------------|

Bass plays this.^         


Guitar Two.

e|---------------------------------------------------------------|
B|--------------------------------------X/-pick-scrape-----------|
G|--------------------------------------X/-----------------------|
D|----------------------------------------------------------|
A|--------------------------------------------------------------|
D|---------------------------------------------------------------|




Verse:  00:15

Guitar One

e|---0---------------0-----------------0----------------------------------|
B|---0---------------0-----------------0----------------------------------|
G|---0---------------0-----------------0------------88-8-8-8-88-8-8-8-----|
D|--------------------------------------------------xx-x-x-x-xx-x-x-x-----|
A|-00---0056-66665-00---005665-6650-00--0056-66665--66-6-6-6-66-6-6-6-----|
D|-00---0056-66665-00---005665-6650-00--0056-66665------------------------|


Guitar Two
e|---0---------------0-----------------0-----------------------------------|
B|---0---------------0-----------------0-----------------------------------|
G|---0---------------0-----------------0------------88-8-8-8/1313-13-13-13-|
D|--------------------------------------------------xx-x-x-x-x-x--x--x--x--|
A|-00---0056-66665-00---005665-6650-00--0056-66665--66-6-6-6/1111-11-11-11-|
D|-00---0056-66665-00---005665-6650-00--0056-66665-------------------------|



Pre Chorus:  00:35

Guitar One
e|-----------------------------------------------------------------|
B|-----------------------------------------------------------------|
G|-7-7-7-7-7-7-7-7-8-8-8-8-6-6-6-6---------------------------------|
D|-x-x-x-x-x-x-x-x-x-x-x-x-x-x-x-x----X4---------------------------|
A|-5-5-5-5-5-5-5-5-6-6-6-6-4-4-4-4---------------------------------|
D|-----------------------------------------------------------------|

Guitar Two

e|-----------------------------------------------------------------|
B|-----------------------------------------------------------------|
G|-12-12-12-12-12-12-12-12-12-12-12-12-12-12-12-12-----------------|
D|-x--x--x--x--x--x--x--x--x--x--x--x--x--x--x--x-----X4-----------|
A|-14-14-14-14-14-14-14-14-14-14-14-14-14-14-14-14-----------------|
D|-----------------------------------------------------------------|



Intro again: 00:54

Guitar One.

e|---------------------------------------------------------------------|
B|-10-10-------10-10-------10--10--10-10-----10-10-------10-10--14-14--|
G|-13-13-------13-13-------13--13--13-13-----13-13-------13-13--17-17--|
D|--------------------------------------------------------------------|
A|-------0560--------0560---------------0560-------0560----------------|
D|-------0560--------0560---------------0560-------0560----------------|

Guitar Two.

e|----------------------------------------------------------------------|
B|----------------------------------------------------------------------|
G|--7-7--------7-7---------7--7--7-7---------7-7---------7-7--10-10-----|
D|--6-6--------6-6--------6--6--6-6---------6-6---------6-6--9--9------|
A|--5-5--0560--5-5---0560--5--5--5-5---0560--5-5--0560---5-5--8--8------|
D|-------0560--------0560--------------0560-------0560------------------|



Guitar One.

e|------------------------------------------------------------------------------|
B|-10-10-------10-10-------10--10--10--10-10-----10-10-------10-10--------------|
G|-13-13-------13-13-------13--13--13--13-13-----13-13-------13-13--------------|
D|----------------------------------------------------------------3-0-(0)-(0)--|
A|-------0560--------0560-------------------0560-------0560--------3-0-(0)-(0)--|
D|-------0560--------0560-------------------0560-------0560--------3-0-(0)-(0)--|


Guitar Two.

e|------------------------------------------------------------------------------|
B|------------------------------------------------------------------------------|
G|--7-7--------7-7---------7--7--7---7-7---------7-7---------7-7----------------|
D|--6-6--------6-6--------6--6--6---6-6---------6-6---------6-6----3-0-(0)-(0)-|
A|--5-5--0560--5-5---0560--5--5--5---5-5---0560--5-5--0560---5-5----3-0-(0)-(0)-|
D|-------0560--------0560------------------0560-------0560----------3-0-(0)-(0)-|





Pre Verse:  1:07

Guitar One.

e|--------------------------------------------------------------------------|
B|--------------------------------------------------------------------------|
G|---------------XX/--pick-scrape-------------------------------------------|
D|--------------XX/------------------------------------------------------|
A|-------------------------------------------------------------------------|
D|--00035666653000003566665300----------------------------------------------|

Bass plays this.^         


Guitar Two.

e|---------------------------------------------------------------|
B|--------------------------------------X/-pick-scrape-----------|
G|--------------------------------------X/-----------------------|
D|----------------------------------------------------------|
A|--------------------------------------------------------------|
D|---------------------------------------------------------------|



Verse:  1:11

Guitar One

e|---0---------------0-----------------0----------------------------------|
B|---0---------------0-----------------0----------------------------------|
G|---0---------------0-----------------0------------88-8-8-8-88-8-8-8-----|
D|--------------------------------------------------xx-x-x-x-xx-x-x-x-----|
A|-00---0056-66665-00---005665-6650-00--0056-66665--66-6-6-6-66-6-6-6-----|
D|-00---0056-66665-00---005665-6650-00--0056-66665------------------------|


Guitar Two
e|---0---------------0-----------------0-----------------------------------|
B|---0---------------0-----------------0-----------------------------------|
G|---0---------------0-----------------0------------88-8-8-8/1313-13-13-13-|
D|--------------------------------------------------xx-x-x-x-x-x--x--x--x--|
A|-00---0056-66665-00---005665-6650-00--0056-66665--66-6-6-6/1111-11-11-11-|
D|-00---0056-66665-00---005665-6650-00--0056-66665-------------------------|



Pre Chorus:  1:31

Guitar One
e|-----------------------------------------------------------------|
B|-----------------------------------------------------------------|
G|-7-7-7-7-7-7-7-7-8-8-8-8-6-6-6-6---------------------------------|
D|-x-x-x-x-x-x-x-x-x-x-x-x-x-x-x-x---------------------------------|
A|-5-5-5-5-5-5-5-5-6-6-6-6-4-4-4-4---------------------------------|
D|-----------------------------------------------------------------|

e|-----------------------------------------------------------------|
B|-----------------------------------------------------------------|
G|-7-7-7-7-7-7-7-7-8-8-8-8-6-6-6-6---------------------------------|
D|-x-x-x-x-x-x-x-x-x-x-x-x-x-x-x-x---------------------------------|
A|-5-5-5-5-5-5-5-5-6-6-6-6-4-4-4-4---------------------------------|
D|-----------------------------------------------------------------|

e|-----------------------------------------------------------------|
B|-----------------------------------------------------------------|
G|-7p0-7p0-7p0-7p0-7p0-7p0-7p0-7p0-8p0-8p0-8p0-8p0-6p0-6p0-6p0-6p0-|
D|-x---x----x--x---x---x---x---x---x---x---x---x---x---x---x---x---|
A|-5p0-5p0-5p0-5p0-5p0-5p0-5p0-5p0-6p0-6p0-6p0-6p0-4p0-4p0-4p0-4p0-|
D|-----------------------------------------------------------------|

e|-----------------------------------------------------------------|
B|-----------------------------------------------------------------|
G|-7-7-7-7-7-7-7-7-8-8-8-8-6---------------------------------------|
D|-x-x-x-x-x-x-x-x-x-x-x-x-x---------------------------------------|
A|-5-5-5-5-5-5-5-5-6-6-6-6-4---------------------------------------|
D|-----------------------------------------------------------------|

Guitar Two

e|-----------------------------------------------------------------|
B|-----------------------------------------------------------------|
G|-12-12-12-12-12-12-12-12-12-12-12-12-12-12-12-12-----------------|
D|-x--x--x--x--x--x--x--x--x--x--x--x--x--x--x--x-----X4-----------|
A|-14-14-14-14-14-14-14-14-14-14-14-14-14-14-14-14-----------------|
D|-----------------------------------------------------------------|



Bridge: 1:50

Both Guitars.

e|---------------------------------------------------------------------------|
B|---------------------------------------------------------------------------|
G|---------------------------------------------------------------------------|
D|---------------------------------------------------------------------------|
A|-0008883334441-0008883334441-0008883334441-0008883334441-------------------|
D|-0008883334441-0008883334441-0008883334441-0008883334441-------------------|

Both Guitars. 2:03

e|------------------------------------------------------------------------|
B|------------------------------------------------------------------------|
G|------------------------------------------------------------------------|
D|------------------------------------------------------------------------|
A|-008833441111-008833441111----------------------------------------------|
D|-008833441111-008833441111----------------------------------------------|
    .      ....   .     ....


2:08

Guitar One
e|-----------------------------------|
B|-----------------------------------|
G|----6p0-5p0-----6p0-5p0---6p0-5p0--|
D|-----------------------------------|X4
A|-00---------000----------0---------|
D|-00---------000----------0---------|
   ..         ...          .

Guitar Two
e|-----------------------------------|
B|-----------------------------------|
G|----15p014p0----15p014p0--15p014p0-|
D|-----------------------------------|X4
A|-00---------000----------0---------|
D|-00---------000----------0---------|
   ..         ...          .

2:20

Guitar One
e|-----------------------------------|
B|-----------------------------------|
G|----10p0-8p0---10p0-8p0------------|
D|-----------------------------------|X4
A|-00----------0----------00---------|
D|-00----------0----------00---------|
   ..          .          ..


Guitar Two.
e|-----------------------------------|
B|-----------------------------------|
G|----4p0-2p0----4p0-2p0-------------|
D|-----------------------------------|X4
A|-00----------0----------00---------|
D|-00----------0----------00---------|
   ..          .          ..

Outro: 2:30

Guitar One.
e|-----------------------------------------------------------|
B|-6~-------------------15-----------10----10----10----------|
G|-------------------------14--------13(14)13(14)13(14)------|
D|-0~------------------------15~-----------------------------|
A|-0~--------------------------------------------------------|
D|-0~--------------------------------------------------------|


Guitar Two.
e|-----------------------------------------------------------|
B|-----------------------------------10----10----10----------|
G|-----------------------------------13(14)13(14)13(14)------|
D|-0~--------------------------------------------------------|
A|-0~--------------------------------------------------------|
D|-0~--------------------------------------------------------|

Ring Out Feedback.


Final Verse:  2:40

Guitar One

e|---0---------------0-----------------0----------------------------------|
B|---0---------------0-----------------0----------------------------------|
G|---0---------------0-----------------0------------88-8-8-8-88-8-8-8-----|
D|--------------------------------------------------xx-x-x-x-xx-x-x-x-----|
A|-00---0056-66665-00---005665-6650-00--0056-66665--66-6-6-6-66-6-6-6-----|
D|-00---0056-66665-00---005665-6650-00--0056-66665------------------------|


Guitar Two
e|---0---------------0-----------------0-------------------------------------------|
B|---0---------------0-----------------0-------------------------------------------|
G|---0---------------0-----------------0------------88-8-8-8/1313-13-13-13--7/-----|
D|--------------------------------------------------xx-x-x-x-x-x--x--x--x---x------|
A|-00---0056-66665-00---005665-6650-00--0056-66665--66-6-6-6/1111-11-11-11--5/-----|
D|-00---0056-66665-00---005665-6650-00--0056-66665---------------------------------|




| /  slide up
| \  slide down
| h  hammer-on
| p  pull-off
| ~  vibrato
| +  harmonic
| x  Mute note
===============================================================================





Comments


Popular Gallows tabs & chords
Just Because You Sleep Next To Me Doesn't Mean You're Safe Bass Tabs
Kill The Rhythm Bass Tabs
The Riverbed Bass Tabs
Abandon Ship Rhythm Tabs
In The Belly Of A Shark 3 Tabs
Just Beacuse You Sleep Next To Me Doesnt Mean Youre Safe Tabs
Misery Tabs
Outsider Art Tabs
Queensberry Rules Tabs
Six Years Tabs


Song lyrics



↑ Back to top | Tablatures and chords are parodies/interpretations of the original songs. You may use it for private study, scholarship, research or language learning purposes only
© 2014 AZChords.com Contact us | Privacy policy | DMCA | Add/correct tabs | Request tabs | Top 50 tabs