» » »

Gallows, Just Because You Sleep Next To Me Doesn't Mean You're Safe Bass tabs (ver.1)

Artists:  A B C D E F G H I J K L M N O P Q R S T U V W X Y Z # 

Just Because You Sleep Next To Me Doesn't Mean You're Safe Bass tabs (ver.1)

Gallows Tabs
 Rating:
4/5 (4 votes)
Just Because You Sleep Next To Me Doesn't Mean You're Safe lessons Tabs too difficult? Try these video lessons and learn fast
                -------------------------------------------------------------------------------
    JUST BECAUSE YOU SLEEP NEXT TO ME DOESNT MEAN YOU’RE SAFE - Gallows
-------------------------------------------------------------------------------

Tuning: DADG

Part 1
G|-----------------------------------------------------------------|
D|-----------------------------------------------------------------|
A|--55---------55---------5-5----55---------55--------5-5--8-8-----|
D|-------0560-----0560--------------0560-----0560------------------|


Part 2
G|-----------------------------------------------------|
D|-----------------------------------------------------|
A|-----------------------------------------------------|
D|---0-00-0-000-05666665-0-00-0-000-056666566665-------|

G|-------------------|
D|-------------------|
A|-------------------|
D|-1-11-11-6-66-66---|


Part 3
G|-----------------------------------------------------------|
D|-----------------------------------------------------------|
A|--------------------------------------------44444444-------|
D|--0000000000000000-11111111--------------------------------|


Part 4
G|----------------------|
D|----------------------|
A|-------111------------|
D|-000-------333-444-1--|


Part 5 (listen to song for timing)
G|-------------------------|
D|-------------------------|
A|-------------------------|
D|--0------------------8\--|



| /  slide up
| \  slide down
| h  hammer-on
| p  pull-off
| ~  vibrato
| +  harmonic
| x  Mute note
===============================================================================
            
Submit corrections

comments powered by Disqus
↑ Back to top | Gallows Bass for Just Because You Sleep Next To Me Doesn't Mean You're Safe. Lyrics for acoustic guitar and electric guitar. Tablatures and chords are parodies/interpretations of the original songs. You may use it for private study, scholarship, research or language learning purposes only