» » »

Gallows, Just Because You Sleep Next To Me Doesn't Mean You're Safe Tabs (ver.2)

Artists:  A B C D E F G H I J K L M N O P Q R S T U V W X Y Z # 

Just Because You Sleep Next To Me Doesn't Mean You're Safe Tabs (ver.2)

Gallows Tabs
 Rating:
4/5 (4 votes)
Just Because You Sleep Next To Me Doesn't Mean You're Safe lessons Tabs too difficult? Try these video lessons and learn fast
1
                -------------------------------------------------------------------------------
          Just Because You Sleep Next To Me Doesn't Mean You're Safe

                                     GALLOWS
-------------------------------------------------------------------------------
Tuning: Drop D


I think my tab is quite horrible at places. I tabbed this song out in hopes that someone 
see this and make corrections then make a better tab. I want to play this song right, 
I’m not sure if mine is that all good. So help me or something.

Intro/Chorus

e|---------------------------------------------------------------------------|
B|---------------------------------------------------------------------------|
G|-1212------1212-------12-12------15-15-------------------------------------|
D|--x-x-6600--x-x-6600---x--x—(2x)--x--x-------------------------------------|
A|-1010-6600-1010-6600--10-10------13-13-------------------------------------|
E|------6600------6600-------------------------------------------------------|

e|---------------------------------------------------------------------------|
B|---------------------------------------------------------------------------|
G|-1212------1212-------12-12-12--1212------1212------1212-------------------|
D|--x-x-6600--x-x-6600---x—x—--x—--x-x-6600—-x-x-6600—-x-x--6-0~~~-----------|
A|-1010-6600-1010-6600--10-10-10—-1010-6600-1010-6600-1010--6-0~~~-----------|
E|------6600------6600-----------------6600------6600-------6-0~~~-----------|

Pickscr*pe…

Verse

e|-----------------------------------------------------------------------------|
B|-----------------------------------------------------------------------------|
G|----7-----------------7------------------------------------------------------|
D|-00-x-5/8-888-878--00-x-5/8-88-5/8-888---------------------------------------|
A|-00-5-5/8-888-878--00-5-5/8-88-5/8-888---------------------------------------|
E|-00---5/8-888-878--00---5/8-88-5/8-888----------------------------------------|

e|---------------------------------------------------------------------------|
B|---------------------------------------------------------------------------|
G|----7--------------88888-1212121212----------------------------------------|
D|-00-x-5/8-888-875--xxxxx--x-x-x-x-x----------------------------------------|
A|-00-5-5/8-888-875--66666-1010101010---------------------------------------------|
E|-00---5/8-888-875----------------------------------------------------------|

Repeat as necessary then…

Prechorus

e|---------------------------------------------------------------------------|
B|---------------------------------------------------------------------------|
G|-8-8-8-8-8-----------------------------------------------------------------|
D|-x-x-x-x-x-----------------------------------------------------------------|
A|-6-6-6-6-6-----------------------------------------------------------------|
E|---------------------------------------------------------------------------|

Listen to the song for how many…
Then play intro/chorus
Then play verse
Then play prechorus (which is kina different at the middle, but I can’t figure it out)

Chorus 2

e|---------------------------------------------------------------------------|
B|---------------------------------------------------------------------------|
G|---------------------------------------------------------------------------|
D|-5558887778880-------5-88-77-88-xxxx---------------------------------------|
A|-5558887778880-(4x)--5-88-77-88-xxxx-(2x)----------------------------------|
E|-5558887778880-------5-88-77-88-xxxx---------------------------------------|


e|---------------------------------------------------------------------------|
B|----10p7h9p7----10p7h9p7---10p7h9p7----------------------------------------|
G|---------------------------------------------------------------------------|
D|---------------------------------------------------------------------------|
A|-00---------000----------0-------------------------------------------------|
E|-00---------000----------0-------------------------------------------------|
PM:..         ...          .

Listen to the song for how many then…

e|---------------------------------------------------------------------------|
B|----6p3h5p3----6p3h5p3-----------------------------------------------------|
G|---------------------------------------------------------------------------|
D|---------------------------------------------------------------------------|
A|-00---------00----------00-------------------------------------------------|
E|-00---------00----------00-------------------------------------------------|
PM:..         ..          ..

Repeat as necessary then…

e|---------------------------------------------------------------------------|
B|---------15~--------9b-9b-9b-----------------------------------------------|
G|------------14~------------------------------------------------------------|
D|-0~~~----------15~---------------------------------------------------------|
A|-0~~~----------------------------------------------------------------------|
E|-0~~~----------------------------------------------------------------------|

Then play chorus.
            
Submit corrections

comments powered by Disqus
↑ Back to top | Gallows Tabs for Just Because You Sleep Next To Me Doesn't Mean You're Safe. Lyrics for acoustic guitar and electric guitar. 1 Tablatures and chords are parodies/interpretations of the original songs. You may use it for private study, scholarship, research or language learning purposes only