>
 >
Sana

Sana Guitar Tabs

Gagong Rapper - Sana chords, tabs, tablatures, lyrics

Guitar lessons | Add/correct | Request | Top 50 tabs Artists:  A B C D E F G H I J K L M N O P Q R S T U V W X Y Z 0-9

Sana Guitar Tabs – Gagong Rapper

CD, Sheet music, Poster

Do you like Sana? Share with your friends now
Tabs
SANA by GAGONG RAPPER from their album UNKNOWN




Guitar Effect Settings:

Drive - Clean or Acoustic 

Patch Name - Chorus                              Just Listen(Behringer)Ears


Guitar Legends:                         I'm playing keyboard and I know the keys of this song.

x dead note

v vibrato

/ slide in
 

Guitar Tuning:

Standard - eBGDAE(Low to High)


Guitar Chords for the whole song:                        

   C  -  A  -  F  -  G 

e|-0--  -0-   -1-   -3-|                 
B|-1--  -2-   -1-   -3-|                 
G|-0--  -2-   -2-   -0-|                 
D|-2--  -2-   -3-   -0-|
A|-3--  -0-   -3-   -2-|
E|-x--  -x-   -1-   -3-|

e|-----------------------------3-----------------------------------------------------------------|
B|---5-6-5-3-5-6-5-3-------5-6---6-5-3---5-6-8-6-5-----------------------------------------------|
G|-5-----------------5-4-5-------------5-----------7-5-----10~----------12v--10v-9v--10-9-7v--0v-|
D|-----------------------------------------------------777------7--999---------------------------|
A|-----------------------------------------------------------------------------------------------|
E|-----------------------------------------------------------------------------------------------|

e|-----------------------------3-------------------------------------------------------------
B|---5-6-5-3-5-6-5-3-------5-6---6-5-3---5-6-8-6-5-------------------------------------------
G|-5-----------------5-4-5-------------5-----------7-5-----10v----------12v--10v-9v--10-9-7v-
D|-----------------------------------------------------777------7--999-----------------------
A|-------------------------------------------------------------------------------------------
E|-------------------------------------------------------------------------------------------

---------------|
---------------|
---------------|
-5-5/7-5-4--2v-|
---------------|
---------------|

Bass Guitar - Low Octave Only
G|-------------------------------------|
D|-------------------------------------| Repeat As Many As you CAn
A|-33333-00000-------------33333-------|
E|-------------11111-33333-------33333-|


That' all for this song.


I like to dedicate this song to my X Carlo,John,Anthony,Maverick and Sam..very sadd





Comments


Popular Gagong Rapper tabs & chords
Ignition Tagalog Chords
Kabet Chords
Kabet 1 Chords
Wag Na Muna Chords
Huling Hiling 1 Tabs
Kabet Tabs
Kabet 2 Tabs
Kabet 4 Tabs
Ignition Tagalog Ukulele
Kabet Ukulele


Song lyrics



↑ Back to top | Tablatures and chords are parodies/interpretations of the original songs. You may use it for private study, scholarship, research or language learning purposes only
© 2014 AZChords.com Contact us | Privacy policy | DMCA | Add/correct tabs | Request tabs | Top 50 tabs