» » »

Gabe Bondoc, We Match Tabs (ver.1)

Artists:  A B C D E F G H I J K L M N O P Q R S T U V W X Y Z # 

We Match Tabs (ver.1)

Gabe Bondoc Tabs
Rating:
5/5 (4 votes)
We Match lessons Tabs too difficult? Try these video lessons and learn fast
                
tab'd by Jhim Carlo

tuning = E A C# E B e (thanks to random email to correct it =D)

s = strumming
^ = downward strum
/ = slide
(x) = harmonic [ x = a fret e.g (12) ]

listen to the song to get the strumming pattern, tab'd we help from 

>>   flipinoy2k   <<

Updated [13 Nov 2008]


intro
   s     s     s     s     s
|--0--|--0--|--0--|--0--|--0--|
|--0--|--0--|--9--|--7--|--5--|
|--0--|--0--|--0--|--0--|--0--|
|--2--|--0--|--0--|--0--|--0--| 
|--2--|--4--|--0--|--0--|--0--|
|--0--|--5--|--9--|--7--|--5--|

pre verse
|---|-------|-------|-------|---------|---------|-----0----|--------|--------|------------|
|---|-------|-------|-------|---------|----0----|----0-0---|-----0--|-----0--|------------|
|---|-0-----|-0-----|-0-----|-0-------|---0-0-0-|---0---0--|----0-0-|----0-0-|-----0------|x2 
|---|---2---|---2---|---2---|---2---2-|--2---2--|--2-------|---2----|---2----|----0-2---0-|    
|---|-------|-------|-------|---------|-0-------|-0--------|--4-----|--2-----|-0h2---0h2--| 
|-0-|-----0-|-----0-|-----0-|-----0---|---------|----------|--------|--------|------------|  

Verse
   s     s     s     s     s
|--0--|--0--|--0--|--0--|--0--|
|--0--|--0--|--9--|--7--|--5--|
|--0--|--0--|--0--|--0--|--0--|
|--2--|--0--|--0--|--0--|--0--| X2
|--2--|--4--|--0--|--0--|--0--|
|--0--|--5--|--9--|--7--|--5--|

pre chorus
   s s
|--0-0--|
|--0-0--|
|--0-0--|
|--5/8--|
|--4/7--|
|--2/5--|

chorus
    s       s       s       s
|---0---|---0---|---0---|---0---|
|---0---|---0---|---0---|---0---|
|---0---|---0---|---0---|---0---|
|---10--|---10--|---0---|---0---|  x2
|---7---|---7---|---0---|---0---|
|---0---|---9---|---0---|---0---|

pre verse
|-------|-------|-------|-------|---------|---------|-----0----|--------|--------|------------|
|-------|-------|-------|-------|---------|----0----|----0-0---|-----0--|-----0--|------------|
|-------|-0-----|-0-----|-0-----|-0-------|---0-0-0-|---0---0--|----0-0-|----0-0-|-----0------|
|-----2-|---2---|---2---|---2---|---2---2-|--2---2--|--2-------|---2----|---2----|----0-2---0-|
|-------|-------|-------|-------|---------|-0-------|-0--------|--4-----|--2-----|-0h2---0h2--|
|-0-----|-----0-|-----0-|-----0-|-----0---|---------|----------|--------|--------|------------|

Verse
   s     s     s     s     s
|--0--|--0--|--0--|--0--|--0--|
|--0--|--0--|--9--|--7--|--5--|
|--0--|--0--|--0--|--0--|--0--|
|--2--|--0--|--0--|--0--|--0--| x2
|--2--|--4--|--0--|--0--|--0--|
|--0--|--5--|--9--|--7--|--5--|

pre chorus
   s s
|--0-0--|
|--0-0--|
|--0-0--|
|--5/8--|
|--4/7--|
|--2/5--|

chorus
    s       s       s       s       s       s                s
|---0---|---0---|---0---|---0---|---0---|---0---|--(12)--|---0---|
|---0---|---0---|---0---|---0---|---0---|---0---|--(12)--|---0---|
|---0---|---0---|---0---|---0---|---0---|---0---|--(12)--|---0---|
|---10--|---10--|---0---|---0---|---10--|---10--|--(12)--|---0---|
|---7---|---7---|---0---|---0---|---7---|---7---|--------|---0---|
|---0---|---9---|---0---|---0---|---0---|---9---|--------|---0---|

Bridge
   s     s     s
|--0--|--0--|--0--|
|--0--|--0--|--0--|
|--5--|--7--|--5--|
|--3--|--5--|--3--|
|--4--|--6--|--4--|
|--0--|--0--|--0--|

           ^                       ^                                s s       
|-------|--0--|-0-------|-------|--0--|-0-------|-------|--(12)--|--0-0--|
|-------|--0--|--0------|-------|--0--|--0------|-------|--(12)--|--0-0--|
|-----0-|--0--|---0-0-0-|-----0-|--0--|---0-0-0-|-----0-|--(12)--|--0-0--|
|---2---|-----|----2-2--|---2---|-----|----2-2--|---0---|--------|--3/5--|
|-------|-----|---------|-0-----|-----|---------|-0-----|--------|--4/6--|
|-0-----|-----|---------|-------|-----|---------|-------|--------|--0-0--|

   s     s               ^
|--0--|--0--|------0-|--(12)--|
|--0--|--0--|-----0--|--(12)--|
|--0--|--0--|----0---|--(12)--|
|--2--|--0--|---0----|--(12)--|
|--2--|--4--|--0-----|--------|
|--0--|--5--|--------|--------|

   s              s       s                             s       s       s       
|--0-0--|--P--|---0---|---0---|--(12)--|------------|---0---|---0---|--(12)--|--0-0--|
|--0-0--|--A--|---0---|---0---|--(12)--|------------|---0---|---0---|--(12)--|--0-0--|
|--0-0--|--U--|---0---|---0---|--(12)--|---0---0----|---0---|---0---|--(12)--|--0-0--|
|--3/5--|--S--|---10--|---10--|--(12)--|--0---2---2-|---10--|---10--|--(12)--|--3/5--|
|--4/6--|--E--|---7---|---7---|--------|-0---2---2--|---7---|---7---|--------|--4/6--|
|--0-0--|-----|---0---|---9---|--------|------------|---0---|---9---|--------|--0-0--|

outro
|---|-------|-------|-------|---------|---------|-------0----|
|---|-------|-------|-------|---------|----0----|------0-0---|
|---|-0-----|-0-----|-0-----|-0-------|---0-0-0-|---------0--|
|---|---2---|---2---|---2---|---2---2-|--2---2--|--2/3-------| x4
|---|-------|-------|-------|---------|-0-------|-0----------|
|-0-|-----0-|-----0-|-----0-|-----0---|---------|------------|

  quick
  down/up
  strum
|---0---|--(12)--|
|---0---|--(12)--|
|---0---|--(12)--|
|---2---|--(12)--|
|---2---|--------|
|---0---|--------|
            

comments powered by Disqus
↑ Back to top | Gabe Bondoc Tabs for We Match. Lyrics for acoustic guitar and electric guitar. Tablatures and chords are parodies/interpretations of the original songs. You may use it for private study, scholarship, research or language learning purposes only