» » »

Gabe Bondoc, We Match Tabs (ver.2)

Artists:  A B C D E F G H I J K L M N O P Q R S T U V W X Y Z # 

We Match Tabs (ver.2)

Gabe Bondoc Tabs
 Rating:
4.3/5 (6 votes)
We Match lessons Tabs too difficult? Try these video lessons and learn fast
                Ok so i played the other tab to this song and no doubt it is mildly correct

spent the last 30 mins making corrections to it from watching his OTS video
consult video for strumming pattern

 - Greg =)

"We Match" by Gabe Bondoc

Tuning is: E A C# E B e
Legend: X=muted note


Intro

e |---|-------|-------|-------|---------|---------|-----0----|--------|--------|------------|
B |---|-------|-------|-------|---------|----0----|----0-0---|-----0--|-----0--|------------|
E |---|-0-----|-0-----|-0-----|-0-------|---0-0-0-|---0---0--|----0-0-|----0-0-|-----0------|x2
C#|---|---2---|---2---|---2---|---2---2-|--2---2--|--2-------|---2----|---2----|----0-2---0-|
A |---|-------|-------|-------|---------|-0-------|-0--------|--4-----|--2-----|-0h2---0h2--|
E |-0-|-----0-|-----0-|-----0-|-----0---|---------|----------|--------|--------|------------|


Verse 1

e |-x----------------------------------|
B |-x----------------------------------|
E |-0----------------------------------|
C#|-3----------------------------------|
A |-2----------------------------------|
E |-0----------------------------------|
    Head to toe we match you know

e |-x----------------------------------|
B |-x----------------------------------|
E |-0----------------------------------|
C#|-0----------------------------------|
A |-4----------------------------------|
E |-5----------------------------------|
    Together watching the falling snow

e |---------x----------------x-----------------------x---|
B |---------x----------------x-----------------------x---|
E |---------0----------------0-----------------------0---|
C#|---------0----------------0-----------------------0---|
A |---------0----------------0-----------------------0---|
E |---------9----------------7-----------------------5---|
    Staying warm beside the fire, looking out the window

e |-x----------------------------------|
B |-x----------------------------------|
E |-0----------------------------------|
C#|-3----------------------------------|
A |-2----------------------------------|
E |-0----------------------------------|
    I'm Loving everything you say and do

e |-x----------------------------------|
B |-x----------------------------------|
E |-0----------------------------------|
C#|-0----------------------------------|
A |-4----------------------------------|
E |-5----------------------------------|
    Tell you when you say you feel it too

e |-----------x-------------------x-------------------------x---|
B |-----------x-------------------x-------------------------x---|
E |-----------0-------------------0-------------------------0---|
C#|-----------0-------------------0-------------------------0---|
A |-----------0-------------------0-------------------------0---|
E |-----------9-------------------7-------------------------5---|
    I'm gonna say that you're the one and that my search is done

Pre-Chorus
e |-----x------x---|
B |-----x------x---|
E |-----5------5---|
C#|-----0------3---|
A |-----x------2---|
E |-----2------0---|
    Cuz yoooou

Chorus 1
e |-------------x-----------------------x------------|
B |-------------x-----------------------x------------|
E |-------------x-----------------------x------------|
C#|-------------10----------------------10-----------|
A |-------------7-----------------------7------------|
E |-------------0-----------------------9------------|
    You make me feel that everything is going right

e |------------------0-------------|
B |------------------0-------------|
E |------------------0-------------|
C#|------------------0-------------|
A |------------------0-------------|
E |------------------0-------------|
    That i can go to sleep tonight

e |-----x-----------------x----|
B |-----x-----------------x----|
E |-----0-----------------0----|
C#|-----0-----------------0----|
A |-----x-----------------x----|
E |-----5-----------------7----|
    And awake to find you here

e |-------------x-----------------------x------------|
B |-------------x-----------------------x------------|
E |-------------x-----------------------x------------|
C#|-------------10----------------------10-----------|
A |-------------7-----------------------7------------|
E |-------------0-----------------------9------------|
    You make me feel that everything is going right

e |------------------0-------------|
B |------------------0-------------|
E |------------------0-------------|
C#|------------------0-------------|
A |------------------0-------------|
E |------------------0-------------|
    That i can go to sleep tonight

e |-------------------------------------------------------|
B |-------------------------------------------------------|
E |-------------------------------------------------------|
C#|-------------------------------------------------------|
A |-------------------------------------------------------|
E |---------------------5------------7--------------------|
    And wake up to your voice, down, blankets and pillows

Pre Verse
e |---|-------|-------|-------|---------|---------|-----0----|--------|--------|------------|
B |---|-------|-------|-------|---------|----0----|----0-0---|-----0--|-----0--|------------|
E |---|-0-----|-0-----|-0-----|-0-------|---0-0-0-|---0---0--|----0-0-|----0-0-|-----0------|
C#|---|---2---|---2---|---2---|---2---2-|--2---2--|--2-------|---2----|---2----|----0-2---0-|
A |---|-------|-------|-------|---------|-0-------|-0--------|--4-----|--2-----|-0h2---0h2--|
E |-0-|-----0-|-----0-|-----0-|-----0---|---------|----------|--------|--------|------------|

Verse 2
e |-x--------------------------------------|
B |-x--------------------------------------|
E |-0--------------------------------------|
C#|-3--------------------------------------|
A |-2--------------------------------------|
E |-0--------------------------------------|
    You love the heat, the warmth, the sun

e |-x------------------------------------|
B |-x------------------------------------|
E |-0------------------------------------|
C#|-0------------------------------------|
A |-4------------------------------------|
E |-5------------------------------------|
    And i completely agree with that one

e |-x----------x--------------------------x----------------------|
B |-x----------x--------------------------x----------------------|
E |-0----------0--------------------------0----------------------|
C#|-0----------0--------------------------0----------------------|
A |-0----------0--------------------------0----------------------|
E |-9----------7--------------------------5----------------------|
    Dry heat, a nice breeze and a hammock hung between two trees

e |-x-----------------------------|
B |-x-----------------------------|
E |-0-----------------------------|
C#|-3-----------------------------|
A |-2-----------------------------|
E |-0-----------------------------|
    From the dimples to the smile

e |-x-----------------------------------|
B |-x-----------------------------------|
E |-0-----------------------------------|
C#|-0-----------------------------------|
A |-4-----------------------------------|
E |-5-----------------------------------|
    From your heart all the way to mine

e |----x----------------x----------------------x---|
B |----x----------------x----------------------x---|
E |----0----------------0----------------------0---|
C#|----0----------------0----------------------0---|
A |----0----------------0----------------------0---|
E |----9----------------7----------------------5---|
    We fit, we match we go, i think you oughta know

Pre-Chorus
e |-----------x------x-------x--x---|
B |-----------x------x-------x--x---|
E |-----------5------5-------0--0---|
C#|-----------0------3-------0--0---|
A |-----------x------2-------x--x---|
E |-----------2------0-------5--7---|
    Think you oughta know

Chorus 2
e |-------------x-----------------------x------------|
B |-------------x-----------------------x------------|
E |-------------x-----------------------x------------|
C#|-------------10----------------------10-----------|
A |-------------7-----------------------7------------|
E |-------------0-----------------------9------------|
    You make me feel that everything is going right

e |------------------0-------------|
B |------------------0-------------|
E |------------------0-------------|
C#|------------------0-------------|
A |------------------0-------------|
E |------------------0-------------|
    That i can go to sleep tonight

e |-----x-----------------x----|
B |-----x-----------------x----|
E |-----0-----------------0----|
C#|-----0-----------------0----|
A |-----x-----------------x----|
E |-----5-----------------7----|
    And awake to find you here

e |-------------x-----------------------x------------|
B |-------------x-----------------------x------------|
E |-------------x-----------------------x------------|
C#|-------------10----------------------10-----------|
A |-------------7-----------------------7------------|
E |-------------0-----------------------9------------|
    You make me feel that everything is going right

e |------------------0-------------12-|
B |------------------0-------------12-|
E |------------------0-------------12-|
C#|------------------0-------------12-|
A |------------------0----------------|
E |------------------0----------------|
    That i can go to sleep tonight

e |---------------------x------------x--------------------|
B |---------------------x------------x--------------------|
E |---------------------0------------0--------------------|
C#|---------------------0------------0--------------------|
A |---------------------x------------x--------------------|
E |---------------------5------------7--------------------|
    And wake up to your voice, down, blankets and pillows

Bridge
e |-x-----------------x---|
B |-x-----------------x---|
E |-5-----------------5---|
C#|-0-----------------3---|
A |-x-----------------2---|
E |-2-----------------0---|
    You and i we both know

e |-x-----------x-------------------------x---x--|
B |-x-----------x-------------------------x---x--|
E |-5-----------5-------------------------0---0--|
C#|-0-----------3-------------------------0---0--|
A |-x-----------2-------------------------x---x--|
E |-2-----------0-------------------------5---7--|
    We match in ways they'll never know

e |-------------x------------x------------|
B |-------------x------------x------------|
E |-------------x------------x------------|
C#|-------------10-----------10-----------|
A |-------------7------------7------------|
E |-------------0------------9------------|
    You make me feel


e |------------------0-------------12-|
B |------------------0-------------12-|
E |------------------0-------------12-|
C#|------------------0-------------12-|
A |------------------0----------------|
E |------------------0----------------|


e |---------------------x------------x--------------------|
B |---------------------x------------x--------------------|
E |---------------------0------------0--------------------|
C#|---------------------0------------0--------------------|
A |---------------------x------------x--------------------|
E |---------------------5------------7--------------------|

e |-------------x------------x------------|
B |-------------x------------x------------|
E |-------------x------------x------------|
C#|-------------10-----------10-----------|
A |-------------7------------7------------|
E |-------------0------------9------------|


e |------------------0-------------12-|
B |------------------0-------------12-|
E |------------------0-------------12-|
C#|------------------0-------------12-|
A |------------------0----------------|
E |------------------0----------------|


e |---------------------x------------x--------------------|
B |---------------------x------------x--------------------|
E |---------------------0------------0--------------------|
C#|---------------------0------------0--------------------|
A |---------------------x------------x--------------------|
E |---------------------5------------7--------------------|

Chorus 3
e |-------------x-----------------------x------------|
B |-------------x-----------------------x------------|
E |-------------x-----------------------x------------|
C#|-------------10----------------------10-----------|
A |-------------7-----------------------7------------|
E |-------------0-----------------------9------------|
    You make me feel that everything is going right

e |------------------0-------------|
B |------------------0-------------|
E |------------------0-------------|
C#|------------------0-------------|
A |------------------0-------------|
E |------------------0-------------|
    That i can go to sleep tonight

e |-----x-----------------x----|
B |-----x-----------------x----|
E |-----0-----------------0----|
C#|-----0-----------------0----|
A |-----x-----------------x----|
E |-----5-----------------7----|
    And awake to find you here

e |-------------x-----------------------x------------|
B |-------------x-----------------------x------------|
E |-------------x-----------------------x------------|
C#|-------------10----------------------10-----------|
A |-------------7-----------------------7------------|
E |-------------0-----------------------9------------|
    You make me feel that everything is going right

e |------------------0-------------12-|
B |------------------0-------------12-|
E |------------------0-------------12-|
C#|------------------0-------------12-|
A |------------------0----------------|
E |------------------0----------------|
    That i can go to sleep tonight

e |---------------------x------------x--------------------|
B |---------------------x------------x--------------------|
E |---------------------0------------0--------------------|
C#|---------------------0------------0--------------------|
A |---------------------x------------x--------------------|
E |---------------------5------------7--------------------|
    And wake up to your voice, down, blankets and pillows

Outro
e |---|-------|-------|-------|---------|---------|-----0----|--------|--------|------------|
B |---|-------|-------|-------|---------|----0----|----0-0---|-----0--|-----0--|------------|
E |---|-0-----|-0-----|-0-----|-0-------|---0-0-0-|---0---0--|----0-0-|----0-0-|-----0------|x3
C#|---|---2---|---2---|---2---|---2---2-|--2---2--|--2-------|---2----|---2----|----0-2---0-|
A |---|-------|-------|-------|---------|-0-------|-0--------|--4-----|--2-----|-0h2---0h2--|
E |-0-|-----0-|-----0-|-----0-|-----0---|---------|----------|--------|--------|------------|

End on
e |---12---|
B |---12---|
E |---12---|
C#|---12---|
A |--------|
E |--------|


Thanks,
 - Greg
            
Submit corrections

comments powered by Disqus
↑ Back to top | Gabe Bondoc Tabs for We Match. Lyrics for acoustic guitar and electric guitar. Tablatures and chords are parodies/interpretations of the original songs. You may use it for private study, scholarship, research or language learning purposes only