» » »

Gabe Bondoc, (I've Got A Crush On A) YouTube Star Tabs (ver.1)

Artists:  A B C D E F G H I J K L M N O P Q R S T U V W X Y Z # 

(I've Got A Crush On A) YouTube Star Tabs (ver.1)

Gabe Bondoc Tabs
 Rating:
4/5 (4 votes)
(I've Got A Crush On A) YouTube Star lessons Tabs too difficult? Try these video lessons and learn fast
1
                

I can only provide the chord fingering. Its always good to 
practice so I think you should listen to Gabe with the 
link above.

Standard Tuning
Capo 2nd Fret
Intro/Verses               Pre-Chorus
E|--0--2--0--0--x---------|--x--x--x--x--x--x--x--x----|
B|--7--3--3--3--3---------|--x--7--x--5--3--3--3--2----|
G|--6--2--0--0--4---------|--7--7--7--6--4--2--0--0----|
D|--7--4--4--4--5---------|--7--6--7--7--x--x--4--2----|
A|--5--2--x--x--x---------|--x--7--x--x--x--x--2--1----|
E|--x--x--0--5--5---------|--7--x--7--5--3--2--x--x----|

  Chorus
E|--2--x--2--x--x--2--x--2--x--|
B|--3--3--3--3--2--3--3--3--2--|
G|--2--0--2--4--0--2--0--2--2--|
D|--4--4--x--5--2--4--4--x--2--|
A|--2--x--x--x--1--2--x--x--x--|
E|--x--x--3--5--x--x--x--3--2--|

  Bridge
E|--2--x--2--x--x--x--x--x--x--x------------|
B|--3--3--3--3--3--2--3--3--x--2------------|
G|--2--0--2--0--0--2--2--2--1--0------------|
D|--4--4--4--4--4--2--x--x--0--2------------|
A|--2--x--2--x--x--x--x--x--x--1------------|
E|--x--x--x--x--x--2--3--2--0--x------------|

[Intro/Verse]
I fall apart when you say hello
At the beginning of your video
So nice of you to come by my place
On your trip through this whole cyberspace

[Pre-Chorus]
I know that this is crazy
So I just keep it to myself
Tell me, who can I tell?

[Chorus]
I got a crush
It's a little bit much
Cause everybody knows who you are
I got a crush
And I won't get far
But I got a crush

[Verse]
I check everyday
Subscribed to your page
Checking for updates
Well ok, I guess there's none today
Well that's just fine
I'm sure you're busy all the time

[Pre-Chorus]
I know that this is crazy
So I just keep it to myself
Tell me, whom gonna tell?

[Chorus]
I got a crush
It's a little bit much
Cause everybody knows who you are
I got a crush
And I won't get far
But I got a crush

[Bridge]
I know you think it's silly
But yes I think I've really found someone
Found her with a search engine
My Y-O-U-T-U-B-E Star

[Chorus]
I got a crush
It's a little bit much
Cause everybody knows who you are
I got a crush
And I won't get far
But I got a crush..

[Chorus/End]
I got a crush
It's a little bit much
Cause everybody knows who you are
I got a crush
But I won't get far
Cause I got a crush
            
Submit corrections

comments powered by Disqus
↑ Back to top | Gabe Bondoc Tabs for (I've Got A Crush On A) YouTube Star. Lyrics for acoustic guitar and electric guitar. 1 Tablatures and chords are parodies/interpretations of the original songs. You may use it for private study, scholarship, research or language learning purposes only