» » »

Sunburn Tabs (ver.5)

Artists:  A B C D E F G H I J K L M N O P Q R S T U V W X Y Z # 

Sunburn Tabs (ver.5)

Fuel
Rating:
0/5 (0 votes)

Hard to play? Try these video lessons and learn fast.
                (Solo)
This is the solo from the acoustic version, and I can confidentaly say that it is
100% correct.
If it was incorrect this tab would not exist. I believe that if you dont know
or are unsure about a tab, well then dont post it. Ive seen to many people do
it, and its frustrating.

So try this one out!   

Tuning: Standard

e|---------------------------------------------------------------------------|
B|---------------------------------------------------------------------------|
G|--7-6h7p6-7----------------------------------------------------------------|
D|------------9-7-5-7-5-7/9\7-7-5-7-5-7b-------------------------------------|
A|---------------------------------------------------------------------------|
E|---------------------------------------------------------------------------|
                             ^  v
e|---------------------------------------------------------------------------|
B|------8---8h10p8-10b-10bp8-10-8--------------------------------------------|
G|--5/9---9------------------------------------------------------------------|
D|---------------------------------------------------------------------------|
A|---------------------------------------------------------------------------|
E|---------------------------------------------------------------------------|
    ^  V  ^  V  ^  V  V  ^  V  V  ^  V  V  ^  V  ^  V  ^  V  ^  V
e|---------------------------------------------------------------------------|
B|--10-10-10-10-10-10-10-10-10-10-10-10-10-10-10-10-10-10-10-10-10\5---------|
G|---------------------------------------------------------------------------|
D|---------------------------------------------------------------------------|
A|---------------------------------------------------------------------------|
E|---------------------------------------------------------------------------|

e|--10/12-12-12b-12-12b-10-12-10-9-10p9----9---------------------------------|
B|--------------------------------------12---12-10\8-8-10--------------------|
G|---------------------------------------------------------------------------|
D|---------------------------------------------------------------------------|
A|---------------------------------------------------------------------------|
E|---------------------------------------------------------------------------|

e|------------------10----10----10-------------------------------------------|
B|----7h8---8-10/12----12----12----12-10-8h10-8-10-8-----8-------------------|
G|--9-----9------------------------------------------7-9---------------------|
D|---------------------------------------------------------------------------|
A|---------------------------------------------------------------------------|
E|---------------------------------------------------------------------------|

e|----------------10----10-12-12b-15-12-15-12-15-17b-15-17-15----------------|
B|--------8-10/12----12------------------------------------------------------|
G|--7-7/9--------------------------------------------------------------------|
D|---------------------------------------------------------------------------|
A|---------------------------------------------------------------------------|
E|---------------------------------------------------------------------------|
    ^  V     V  ^  V     V  ^  V  V  V     V  ^  V  ^  V  ^  V  V
e|--15-15\14-14-14-14\12-12-12-12-10-12\10-10-10-10-10-10-10-10-10-----------|
B|---------------------------------------------------------------------------|
G|---------------------------------------------------------------------------|
D|---------------------------------------------------------------------------|
A|---------------------------------------------------------------------------|
E|---------------------------------------------------------------------------|

e|---------------------------------------------------------------------------|
B|---------------------------------------------------------------------------|
G|---------------------------------------------------------------------------|
D|---------------------------------------------------------------------------|
A|---------------------------------------------------------------------------|
E|---------------------------------------------------------------------------|

If theres any questions or you would like the rhythm just send an email.


| /  slide up                    | b  bend
| \  slide down                  | ^  up pick
| h  hammer-on                   | V  down pick
| p  pull-off
| ~  vibrato
| +  harmonic
| x  Mute note
            
Hard to play? Try these video lessons and learn fast. | Correct




comments powered by Disqus
↑ Back to top | Tablatures and chords are parodies/interpretations of the original songs. You may use it for private study, scholarship, research or language learning purposes only