» » »

Fuel, Sunburn Tabs (ver.2)

Artists:  A B C D E F G H I J K L M N O P Q R S T U V W X Y Z # 

Sunburn Tabs (ver.2)

Fuel Tabs
Rating:
0/5 (0 votes)
Sunburn lessons Tabs too difficult? Try these video lessons and learn fast
                Sunburn

*=optional bass note (of particular chord)
~=bend
^=hammer (p=pull off)
()=muted note

INTRO:
  E shape    A shape    Modified A                    (let ring)
e-----0------0---------------------------0-0-0--0---12--|
B-----0--0---2-----2-----3-0-----2-2-----0--------------|
G-----0---0--2---------------------------0--------------|
D-----2------2--2------4------2----------2--------------|
A-------------------------------------0--x--------------|
E--0----------------------------------------------------|

Repeat INTRO for the VERSE, exept with a faster pace and with distortion

CHORUS:
     {I N T R O  T O  C H O R U S}           {S E C T I O N  1}     {S E C T I O N  2}
e-{-------------3---------5------------}--{---------------------}-{-------------------|
B-{-------------5---------7------------}--{-----------------9---}-{-------------------|
G-{-(5)-(5)-(5)-5---5-5---7---7-7-7--7-}--{-------x-5-5-x---9---}-{------------7-x-5--|
D-{-(5)-(5)-(5)-5---5-5---7---7-7-7--7-}--{-------x-5-5-x---9---}-{-7-7---7-7--7-x-5--|
A-{-(3)-(3)-(3)-3---3-3---5---5-5-5--5-}--{-2--2--x-3-3-x---7---}-{-7-7---7-7--5-x-3--|
E-{-(x)-(x)-(x)-3---------5---5-5-5--*-}--{-0--0--x-----x-------}-{-5-5---5-5---------|

END CHORUS:  After playing section one again play this:

e-----0---0--------0---0--------5~7\\1-1p0----0--0--x-|
B---0-----------0------------0---------------0--0--x-|
G-0----------0------------0------------------0--0--x-|
D--------------------------------------------2--2--2-|
A--------------------------------------------2--2--0-|
E--------------------------------------------0--0--*-|
            

comments powered by Disqus
↑ Back to top | Fuel Tabs for Sunburn. Lyrics for acoustic guitar and electric guitar. Tablatures and chords are parodies/interpretations of the original songs. You may use it for private study, scholarship, research or language learning purposes only