» » »

Fuel, Hemorrhage Tabs (ver.1)

Artists:  A B C D E F G H I J K L M N O P Q R S T U V W X Y Z # 

Hemorrhage Tabs (ver.1)

Fuel Tabs
 Rating:
4/5 (4 votes)
Hemorrhage lessons Tabs too difficult? Try these video lessons and learn fast
                PROPS GO TO: Timothy Maxwell

Fuel
Hemorrhage(In My Hands)
Tuning: Eb Ab Db Gb Bb Eb
Chords:
Bm: X24432 A: X02220 Em: 022000 Em9/B: X24030 Em9/A: X04030 Em9/G: 3X4030
D: XX0232 D5: XX023X D5(maj7): XX022X G: 320033 F#: 2443(00)
Intro:
  Bm         A           Em~
|-10---------9------9--|------------------------|
|----12---------12-----|------------------------|
|-------11-------------|-11---------------------|
|----------------------|------------------------|
|----------------------|------------------------|
|----------------------|------------------------|
Verse Riff:
  Em9/B         Em9/A          Em9/G         Em9/A
|---------0-------------0-----|---------0-------------0-------|
|-------3-------------3-------|-------3-------------3---------|
|-----0-----0-------0-----0---|-----0-----0-------0------0----|
|---4---------4---4---------4-|---4---------4---4----------4--|
|-2-------------0-------------|---------------0---------------|
|-----------------------------|-3-----------------------------|
Verse 1: (Verse Riff)
Memories are just where you laid them
Drag the waters till the depts give up their dead
What dis you expect to find, was there something you left behind
Don't you remember anything I said when I said
Chorus:
        Em              D      A       D5          D5(maj7)/Em
 .....     Don't fall_________away and leave me to myself
|-----|----------------------------------------------------------|
|-----|----------------------------------------------------------|
|-----|----------------------------------------------------------|
|-----|----------------------------------------------------------|
|-----|-----------------5------0---------------------------------|
|-3-2-|-0--------------------------------------------------------|
  Em         D   A                            G           D            A
     Don't fall away, and leave love bleedin' in my hands in my hands again
    F#                   G            D            F#
and leave love bleeding' in my hands, in my hands, love lies bleeding
 Em9/B   Em9/A     Em9/G    Em9/A
|----------------|-------------------|
|----------------|-------------------|
|----------------|-------------------|         2x
|----------------|-------------------|
|-2------0-------|----------0--------|
|----------------|--3----------------|
Verse 2: (Verse Riff)
Oh, hold me now I feel contagious
Am I the only place that you've left to go
She cries her life is like some movie black and white
Dead actors faking lines, over and over and over again she cries
Chorus
Bridge:
N.C.
  And I wanted,               and you turned away
|--------------------------------|---------------------------|
|--------------------------------|---------------------------|
|--------------------------------|---------------------------|
|--------------------------------|---------------------------|
|-----------------2-2-2-2--------|-2-2-2-2-4-4-4-4-5-5-5-5-4-|
|-3-3-3-3-5-5-5-5--------5(bend)-|---------------------------|
  You don't remember       but I do                   you never even
|----------------------------|---------------------------|-------------|
|----------------------------|---------------------------|-------------|
|----------------------------|---------------------------|-------------|
|----------------------------|---------------------------|-------------|
|-5-5-5-5-7-7-7-7-9-9-9-2----|-4----4----4---------------|-4-----------|
|-----------------------0----|-2----2----2---------------|-2-----------|
Solo:
 tried
|-14--------14---------14---|------14-------------------------|
|------12--------12---------|--12-----12---15-------14----11--|
|---------------------------|---------------------------------|
|---------------------------|---------------------------------|
|---------------------------|---------------------------------|
|---------------------------|---------------------------------|

|------14--------14-------14--|-----------------12------12-12-12-12-|
|-12-------12-------12--------|--12-0-12-10-10-------10-------------|
|-----------------------------|-------------------------------------|
|-----------------------------|-------------------------------------|
|-----------------------------|-------------------------------------|
|-----------------------------|-------------------------------------|

|------14---------14-------|------14------------14------|
|-15-------15-14-------14--|-12---------12-14--------14-|
|--------------------------|----------------------------|
|--------------------------|----------------------------|
|--------------------------|----------------------------|
|--------------------------|----------------------------|

|-------------12---------12-|-12---14-----15---14-----------|
|--12-----------------------|-------------------------------|
|------11----------11-------|-------------------------------|
|---------------------------|-------------------------------|
|---------------------------|-------------------------------|
|---------------------------|-------------------------------|
Chorus
(you know how it goes)
ending solo:
 G        D        A                 G      D       A
|----------------|-----------------|--------------|----------------------|
|----------------|-----------------|--------------|----------------------|
|-6-7-7-6--7-7-6-|-6-------6---6---|-6-7-7-6--7-6-|---6------------6-----|
|----------------|---7-7-7---7---7-|--------------|-7---7--7-7-7-7----7--|
|----------------|-----------------|--------------|----------------------|
|----------------|-----------------|--------------|----------------------|
 G       D         A                 G      D         A~
|----------------|-----------------|----------------|-------------------|
|----------------|-----------------|----------------|-------------------|
|-6-7-7-6--7-7-6-|-6-------6---6---|-6-7-7-6--7--6--|-6-----------------|
|----------------|---7-7-7---7---7-|----------------|-------------------|
|----------------|-----------------|----------------|-------------------|
|----------------|-----------------|----------------|-------------------|
/quick/
            
Submit corrections

comments powered by Disqus
↑ Back to top | Fuel Tabs for Hemorrhage. Lyrics for acoustic guitar and electric guitar. Tablatures and chords are parodies/interpretations of the original songs. You may use it for private study, scholarship, research or language learning purposes only