>
 >
Sunburn 2

Sunburn 2 Guitar Tabs

Fuel - Sunburn 2 chords, tabs, tablatures, lyrics

Guitar lessons | Add/correct | Request | Top 50 tabs Artists:  A B C D E F G H I J K L M N O P Q R S T U V W X Y Z 0-9

Sunburn 2 Guitar Tabs – Fuel

CD, Sheet music, Poster

Do you like Sunburn 2? Share with your friends now
Bass TabsChordsChords v2TabsTabs v2Tabs v3Tabs v4Tabs v5Ukulele
I am pretty sure this is all correct. I would suggest a foot pedal - maybe a 
Zoom 505 -  
to get that "under water" or "wah" effect you hear throughout the song. Other 
than that, it's 
not very hard. It just took forever to figure out. I should get the solo up 
soon. It's not 
totally complete.  

Someone could play the chords Em and A in the background. 

Intro/Verses: 
E----0-------0-----------------------------------------0--| 
B----0--0--x-2-----2------3-0-------2-0------3-3-3h5---2--| 
G----0---0-x-2-----------------------------------------2--| 
D----2-----x-2--2-----2/4------4\2---------------------2--| 
A---------------------------------------------------------| 
E-0---------------------------------------0---------------| 


Pre-Chorus: 
E---------------------------------------------------| 
B---------------------------------------------------| 
G-----5------5----5-5-5-5-5-5-5-5--7-7-7-7-7-7-7-7--| 
D---5------5------5-5-5-5-5-5-5-5--7-7-7-7-7-7-7-7--| 
A-3------3--------3-3-3-3-3-3-3-3--5-5-5-5-5-5-5-5--| 
E---------------------------------------------------| 
  
Chorus:                             Background Notes:     "Let the sun fall 
down..": 
E-----------------------------------|--0-----0------|     |---------------| 
B-----------------------------------|----3-----3----|     |------0-----0--| 
G-0-0-x-5--7-7-7-----------7-7-7-7--|------2-----2--|     |----0-----0----| 
D-2-2-x-5--7-7-7--7-7-7-7--7-7-7-7--|---------------|     |--0-----0------| 
A-2-2-x-3--5-5-5--7-7-7-7--5-5-5-5--|---------------|     |---------------| 
E-0-0-------------5-5-5-5-----------|---------------|     |---------------| 

"'Till my eyes dry out.." (these strumming patterns aren't correct): 
[ r e p e a t ]    [into solo] 
E-----------------|-----------| 
B-----------------|-----------| 
G--------0-0-0-0--|--7-7-7-7--| 
D-7-7-7--2-2-2-2--|--7-7-7-7--| 
A-7-7-7--2-2-2-2--|--5-5-5-5--| 
E-5-5-5--0-0-0-0--|-----------| 

Outro: 
E-------------------------------------|-------------------------------------| 
B-------------------------------------|-------------------------------------| 
G-12\11-11-11-11\9-9-9-9\7-7-7-7/9v-\-|--12\11-11-11-11\9-9-9-9\7-7-7-7\4v--| 
D-------------------------------------|-------------------------------------| 
A-------------------------------------|-------------------------------------| 
E-------------------------------------|-------------------------------------| 

E-------------------------------------------------| 
B-------------------------------------------------| 
G-12\11-11-11-11\9-9-9-9\7-7-7-7/9-7-5-4-5-4-2-0--| 
D-------------------------------------------------| 
A-------------------------------------------------| 
E-------------------------------------------------| 

There you go.





Comments


Popular Fuel tabs & chords
Prove Bass Tabs
Wasted Time Bass Tabs
Hemorrhage (In My Hands) 1 Chords
Innocent Chords
Shimmer 2 Chords
Shimmer 3 Chords
Again Tabs
Fall On Me Tabs
Innocent 2 Tabs
Bad Day Ukulele


Song lyrics



↑ Back to top | Tablatures and chords are parodies/interpretations of the original songs. You may use it for private study, scholarship, research or language learning purposes only
© 2014 AZChords.com Contact us | Privacy policy | DMCA | Add/correct tabs | Request tabs | Top 50 tabs