>
 >
Sunburn 5

Sunburn 5 Guitar Tabs

Fuel - Sunburn 5 chords, tabs, tablatures, lyrics

Guitar lessons | Add/correct | Request | Top 50 tabs Artists:  A B C D E F G H I J K L M N O P Q R S T U V W X Y Z 0-9

Sunburn 5 Guitar Tabs – Fuel

CD, Sheet music, Poster

Do you like Sunburn 5? Share with your friends now
Bass TabsChordsChords v2TabsTabs v2Tabs v3Tabs v4Tabs v5Ukulele
Fuel - Sunburn(Acoustic)


Standard Tuning




Intro/Verse:
e|------0----------0--------------------------------------0----0----|
b|------3---3------2-------2------2-------3-------3--3--3------2----|
g|------0------0---2----------------2-------2-----0------------2----|
d|------2----------2----------0h2-------2---------2------------2----|
a|------2----------0-----0------------------------2------------0----|
D|--0---------------------------------------------0-----------------|
       rake                                      rake

                                           2nd guitar ->  e  ---12----|
                                           (harmonics)    b  -12------|
                                                          g  ---------|

e|------0----------0--------------------------------------0----0----|
b|------3---3------2-------2------2-------3-------3--3--3------2----|
g|------0------0---2----------------2-------2-----0------------2----|
d|------2----------2----------0h2-------2---------2------------2----|
a|------2----------0-----0------------------------2------------0----|
D|--0---------------------------------------------0-----------------|
                                             

Sky was dark . . .             Not a bird . . .                          

e|------0----------0--------------------------------------0----0-----------------------------|
b|------3---3------2-------2------2-------3-------3--3--3------2-------2------2-------3------|
g|------0------0---2----------------2-------2-----0------------2----------------2-------2----|
d|------2----------2----------0h2-------2---------2------------2----------0h2-------2--------|
a|------2----------0-----0------------------------2------------0-----0-----------------------|
D|--0---------------------------------------------0------------------------------------------|


e|------0----------0--------------------------------------0----0------------|
b|------3---3------2-------2------2-------3-------3--3--3------2-------2----|
g|------0------0---2----------------2-------2-----0------------2------------|
d|------2----------2----------0h2-------2---------2------------2------------|
a|------2----------0-----0------------------------2------------0-----0------|
D|--0---------------------------------------------0-------------------------|

Chorus:
e|----------------------|
b|----------------0-----|
g|-------0--------0-----| x2
d|---------0----0-------|
a|---3/5-----3----------|
D|----------------------|

e|------------------------------------------|
b|--------------0-0-0-0-0----3---3----3-3---|
g|-------0------0-0-0-0-0----2---2----2-2---|
d|---------0----2-2-2-2-2----0---0----0-0---|
a|---3/5-----3--3-3-3-3-3----0---0----0-0---|
D|------------------------------------------|

e|---0-0-0--0-------0-----0-----------|
b|---0-0-0--1---3-----3-----3---0-----|
g|---0-0-0--0---2-------2-----2-------| x2
d|---0h2-2--2---0---------------------|
a|---0h2-2--3---0---------------------|
D|---0-0-0----------------------------|

e|---0-0-0--0-------0-----0------|
b|---0-0-0--1---3-----3-----3----|
g|---0-0-0--0---2-------2--------| 
d|---0h2-2--2---0----------------|
a|---0h2-2--3---0----------------|
D|---0-0-0-----------------------|

e|----------------------|
b|----------------0-----|
g|-------0--------0-----| x3
d|---------0----0-------|
a|---3/5-----3----------|
D|----------------------|

e|------0----------0--------------------------------------0----0-----------------------------|
b|------3---3------2-------2------2-------3-------3--3--3------2-------2------2-------3------|
g|------0------0---2----------------2-------2-----0------------2----------------2-------2----|
d|------2----------2----------0h2-------2---------2------------2----------0h2-------2--------|
a|------2----------0-----0------------------------2------------0-----0-----------------------|
D|--0---------------------------------------------0------------------------------------------|


e|------0----------0--------------------------------------0----0------------|
b|------3---3------2-------2------2-------3-------3--3--3------2-------2----|
g|------0------0---2----------------2-------2-----0------------2------------|
d|------2----------2----------0h2-------2---------2------------2------------|
a|------2----------0-----0------------------------2------------0-----0------|
D|--0---------------------------------------------0-------------------------|

Chorus:
e|----------------------|
b|----------------0-----|
g|-------0--------0-----| x2
d|---------0----0-------|
a|---3/5-----3----------|
D|----------------------|

e|------------------------------------------|
b|--------------0-0-0-0-0----3---3----3-3---|
g|-------0------0-0-0-0-0----2---2----2-2---|
d|---------0----2-2-2-2-2----0---0----0-0---|
a|---3/5-----3--3-3-3-3-3----0---0----0-0---|
D|------------------------------------------|

e|---0-0-0--0-------0-----0-----------|
b|---0-0-0--1---3-----3-----3---0-----|
g|---0-0-0--0---2-------2-----2-------| x2
d|---0h2-2--2---0---------------------|
a|---0h2-2--3---0---------------------|
D|---0-0-0----------------------------|

e|---0-0-0--0-------0-----0------|
b|---0-0-0--1---3-----3-----3----|
g|---0-0-0--0---2-------2--------| 
d|---0h2-2--2---0----------------|
a|---0h2-2--3---0----------------|
D|---0-0-0-----------------------|

e|----------------------|
b|----------------0-----|
g|-------0--------0-----| x2
d|---------0----0-------|
a|---3/5-----3----------|
D|----------------------|

e|------------------------------------------|
b|--------------0-0-0-0-0----3---3----3-3---|
g|-------0------0-0-0-0-0----2---2----2-2---|
d|---------0----2-2-2-2-2----0---0----0-0---|
a|---3/5-----3--3-3-3-3-3----0---0----0-0---|
D|------------------------------------------|

Bridge:
Am Em   Am Em  Am Em  C D


Solo:

|----------------------------------------------------------|
|----------------------------------------------------------|
|--7~~-6h7-6-----------------------------------------------|
|--------------9-7-5-7-5--7s9s7-7-5-7-5-7~~~~--------------|
|----------------------------------------------------------|
|----------------------------------------------------------|

|----------------------------------------------------------|
|-----8--------8h10p8-10b12--10b12-8-10-8------------------|
|-5s9---9~~------------------------------------------------|
|----------------------------------------------------------|
|----------------------------------------------------------|
|----------------------------------------------------------|

|-------------------------------------------------------------------------|
|-10-10-10-10-10b12-10-10-10b12-10-10-10b11-10b12-10-10-10-10-10-10-10s5--|
|-------------------------------------------------------------------------|
|-------------------------------------------------------------------------|
|-------------------------------------------------------------------------|
|-------------------------------------------------------------------------|

|-10-10-10-10-12b14-12-12b14---12-10-12-10-9-10-9--10---------------------|
|------------------------------------------------12--12-10-12-10s8-8-10---|
|-----------------------------------------------------------------------9-|
|-------------------------------------------------------------------------|
|-------------------------------------------------------------------------|
|-------------------------------------------------------------------------|

|---------------------------10--10-------------------------------------10-|
|-8h10p8------------10-12b13--12--12-12b13-10h12X-10h12-10b11----8-10b11--|
|--------9s7-7-7s9-8-----------------------------------------7h9----------|
|-------------------------------------------------------------------------|
|-------------------------------------------------------------------------|
|-------------------------------------------------------------------------|

|-------10--12-12b13-12-15-12-15-12-15-18b19-15-18-15-15-15s14-14-14-14s12-12-12-12s10-10-10-12b13-10-|
|-10-----------------------------------------------------------------------------------------------|
|--------------------------------------------------------------------------------------------------|
|--------------------------------------------------------------------------------------------------|
|--------------------------------------------------------------------------------------------------|
|--------------------------------------------------------------------------------------------------|

|-10b12-10-10-10-10-10-10-10s5--|
|-------------------------------|
|-------------------------------|
|-------------------------------|
|-------------------------------|
|-------------------------------|

e|---0-0-0--0-------0-----0-----------|
b|---0-0-0--1---3-----3-----3---0-----|
g|---0-0-0--0---2-------2-----2-------| x2
d|---0h2-2--2---0---------------------|
a|---0h2-2--3---0---------------------|
D|---0-0-0----------------------------|

e|---0-0-0--0-------0-----0------|
b|---0-0-0--1---3-----3-----3----|
g|---0-0-0--0---2-------2--------| 
d|---0h2-2--2---0----------------|
a|---0h2-2--3---0----------------|
D|---0-0-0-----------------------|

e|------------------------------------------|
b|--------------0-0-0-0-0----3---3----3-3---|
g|-------0------0-0-0-0-0----2---2----2-2---|
d|---------0----2-2-2-2-2----0---0----0-0---|
a|---3/5-----3--3-3-3-3-3----0---0----0-0---|
D|------------------------------------------|

Gtr. 1             
e|---0-0-0--0-------0-----0-----------|
b|---0-0-0--1---3-----3-----3---0-----|
g|---0-0-0--0---2-------2-----2-------|
d|---0h2-2--2---0---------------------|<-------|
a|---0h2-2--3---0---------------------|        |
D|---0-0-0----------------------------|        |
                                               |
Gtr. 2                                         | played at same time x2
e|---0-0-0--0-------0-0-0-0---0-0-----|        |
b|---0-0-0--1---3-----3-3---3-3-3-----|        |
g|---0-0-0--0---2-----2-2-----2-2-----|        |
d|---0h2-2--2---0---------------------|<-------|
a|---0h2-2--3---0---------------------|
D|---0-0-0----------------------------|

Gtr. 1
e|----------------------|
b|----------------0-----|
g|-------0--------0-----| until end
d|---------0----0-------|
a|---3/5-----3----------|
D|----------------------|





Comments


Popular Fuel tabs & chords
Hemorrhage (In My Hands) Bass Tabs
Hemorrhage In My Hands 3 Bass Tabs
Wasted Time Bass Tabs
Falls On Me Tabs
Gone Intro Tabs
Hemmorhage 1 Tabs
Hemorrhage (In My Hands) Tabs
Luck Tabs
Slow Ukulele
Wasted Time Ukulele


Song lyrics



↑ Back to top | Tablatures and chords are parodies/interpretations of the original songs. You may use it for private study, scholarship, research or language learning purposes only
© 2014 AZChords.com Contact us | Privacy policy | DMCA | Add/correct tabs | Request tabs | Top 50 tabs