» » »

Last Time Tabs (ver.2)

Artists:  A B C D E F G H I J K L M N O P Q R S T U V W X Y Z # 

Last Time Tabs (ver.2)

Fuel
Rating:
0/5 (0 votes)

Hard to play? Try these video lessons and learn fast.
                
Drop D tuning
Intro: 
Guitar 1
Alternates between two chords every four measures.
The chords our held on the ninth fret(so instead of 1's being the first fret 
they are actually the ninth fret. Got it?

 Bsus2           D
 113x00         01x320

Guitar 2    
This is pretty much it for the second guitar in the intro. Except on the last
two measures of the song you bend up half a step.
E---------------------------------------------------
B---------------------------------------------------
G-11-----11------11--11--11--11----11----11---------   X7
D--------------------------------------------------- 
A-9------9-------9---9---9---9-----9-----9----------
E---------------------------------------------------

Verse:
Guitar 1
Same as intro except after about six measures he throws in a E5 chord
   E5
  2224xx

Guitar 2 You play these two parts until it gets to the part that says
"Still I come for you tonight" Then play the into simile again
E---------------------------------------------------
B---------------------------------------------------
G-11-------------11-------11------------------------
D---------------------------------------------------    X2
A-9--------------9--------9-------------------------
E----------------------0----------------------------

E-----------------------------------------------------------
B-----------------------------------------------------------
G----------------11----------11------11---------11------11--   X 2
D-11--------------------------------------------------------
A-9--------------9-----------9-------9----------9-------9---
E-9--------0------------0------------0------0--------0------

Chorus:
Guitar 1
E-----------------------------------------------------
B-----------------------------------------------------
G-----------------------------------------------------   X3
D-----------------------------------------------------
A--0---4---4---0---4---4---0----------4---4---0---2---
E--0---4---4---0---4---4---0---4---4--4---4---0---2---

Then it goes into this once
E-------------------------------------------------------
B-------------------------------------------------------
G-------------------------------------------------------
D-------------------------------------------------------
A-----------0---4-------2---0--------0-----1---2--5--7--
E---0---4----------------------4-----0-----1---2--5--8--
Guitar 2
E---------------------------------------------------------------
B------10---10-------10---10---------10----------9---10---9-----
G--11-----------11-------------11-----------11------------------  X3
D---------------------------------------------------------------
A---------------------------------------------------------------
E---------------------------------------------------------------
Then both guitars go back into the intro chords

Bridge:
This is when he sings "And Everything I fell, I know you know"
This is just muted stings Then they throw open strings at the end you will
Have to listen to the CD to get the timing right.
E------------------------------------
B------------------------------------
G------------------------------------
D--X----X----X---X----0-------0------
A--X----X----X---X----0-------0------
E--X----X----X---X----0-------0------

Guitar Solo: 
You will definetly have to listen to the CD for this part but here
is the just of it.
E--7-----------7--8--9-----10--12--14--------------------------
B--7-----------7--8--9-----10--12--15--14--10--14--14--10--14--
G--------------------------------------14--11--14--14--11--14--
D--------------------------------------------------------------
A--------------------------------------------------------------
E--------------------------------------------------------------

E--14----12-------14-----14-12----14---15---16-----19---
B--15----14-------15-----15-14----15---16---17-----21---
G-------------------------------------------------------
D-------------------------------------------------------
A-------------------------------------------------------
E-------------------------------------------------------
 
Then the song goes back into the chorus but they throw in a F#5 Chord
 F#5
4446XX


So the whole layout of the song goes like this.
 Intro 
 Verse
 Chorus
 Intro
 Bridge
 Solo
 Chorus

questions, comments, complaints or just to BS. 
Peace I'm out!
            
Hard to play? Try these video lessons and learn fast. | Correct




comments powered by Disqus
↑ Back to top | Tablatures and chords are parodies/interpretations of the original songs. You may use it for private study, scholarship, research or language learning purposes only