» » »

Fuel, Last Time Tabs (ver.3)

Artists:  A B C D E F G H I J K L M N O P Q R S T U V W X Y Z # 

Last Time Tabs (ver.3)

Fuel Tabs
 Rating:
4/5 (4 votes)
Last Time lessons Tabs too difficult? Try these video lessons and learn fast
                By Mark Wisneski

Played in drob D
Key-- * = palm mute
^ = bend
You will have to figure out how it goes because I was way to fricken lazy
-------------------------------------------
-------------------------------------------
-------------------------------------------
-9-9-9-9-9--12-12-12-12-12---------- 4x beginning
-9-9-9-9-9--12-12-12-12-12----------
-9-9-9-9-9--12-12-12-12-12----------

G----11^--11^--11^--11^-------------only the second time in the beginning with a different guitar

-------------------------------------------
-------------------------------------------
-------------------------------------------
-9---------12----------2-2-2-2-2-2-2-2-2-2-verse
-9---------12---5x-----2-2-2-2-2-2-2-2-2-2-
-9---------12----------2-2-2-2-2-2-2-2-2-2-

------------------------------------
------------------------------------
------------------------------------
-12-12-12-12-12--9-9-9-9-9----------2x
-12-12-12-12-12--9-9-9-9-9----------
-12-12-12-12-12--9-9-9-9-9----------

-------------------------------------
-------------------------------------
------------------------------------- Chorus
-0-4-4-0-4-4-0---4-4-4-0-------------3x
-0-4-4-0-4-4-0---4-4-4-0-------------
-0-4-4-0-4-4-0---4-4-4-0-------------

-----------------------------------------
-----------------------------------------
-----------5^--3-------------------------
----3--6----------6--3-------------------
-4-----------------------4---------------
----------------------------------------- this is played after the first and after the second chorus

-------------------------------------------
-------------------------------------------
----11^-11----11^-11--11^-11-----11^-11----
-9----------12---------9----------12------- verse 2
-9----------12---------9----------12-------
-9----------12---------9----------12-------



---------------------------------------
---------------------------------------
---------------------------------------
-0-0-0-0-0-0-0-0-0-0-0-0-3--3----------
-0-0-0-0-0-0-0-0-0-0-0-0-3--3----------
-0-0-0-0-0-0-0-0-0-0-0-0-3--3----------
-*-*-*-*-*-*-*-*-*-*-*-* 

e-7^----5-----5-----5-----9^--9-9^--9-9^---12^^^^^---
B-----------7-----7----------------------------------
the 12 fret bend is slow 
            
Submit corrections

comments powered by Disqus
↑ Back to top | Fuel Tabs for Last Time. Lyrics for acoustic guitar and electric guitar. Tablatures and chords are parodies/interpretations of the original songs. You may use it for private study, scholarship, research or language learning purposes only