» » »

Fuel, Hemmorhage Tabs (ver.3)

Artists:  A B C D E F G H I J K L M N O P Q R S T U V W X Y Z # 

Hemmorhage Tabs (ver.3)

Fuel Tabs
Rating:
0/5 (0 votes)
Hemmorhage lessons Tabs too difficult? Try these video lessons and learn fast
                
This tab is 99% correct, I think i'm missing something in the intro. 
The timing is a little weird  so listen to the cd or Napster 
(if your like me) to get the timing.

Standard Tuning

Intro (let last note ring)

e---0--0----0--0--0--
B---3--3----2--2--2--
G---4--4----2--2--2--
D---4--4----2--2--2--
A---2--2----0--0--0--
E------------------------

Picking Part

e-------------------0-----------------------------------0--------------------------------------0---------------------------------0-----------------
B---------------3------3----------------------------3-----3------------------------------3------3--------------------------3-------3------------
G-----------0-------------0-------------------0--------------0---------------------0----------------0-----------------0----------------0--------
D-------4---------------------------------4------------------------4-----------4------------------------------------4-------------------------4----
A---2---------------------------0-------------------------------------------------------------------------------0------------------------------------
E---------------------------------------------------------------------------3--------------------------------------------------------------------------
Memories are just where you lay them
Drag the waters till the depths give up there dead
What did you expect to find? Was there something you left behind?
Don't you remember anything I said when I said

Pre Chorus

e---0---0-----0---0---0-----0--0--0--0-0---0-0-0--
B---0---0-----3---3---3-----2--2--3--3-3---3-3-3--
G---0---0-----2---2---2-----2--2--2--2-2---2-2-2--
D---2---2-----0---0---0-----2--2--2--2-2---2-2-2--
A---2---2---------------------0--0--0--0-0---0-0-0--
E---0---0-------------------------------------------------
Don't fall away, and leave me to myself
Don't fall away and leave love bleedin

Chorus

e---3-----3---2------------------------------
B---3-----3---3-----2-----2---2---2---2--
G---0-----0---2-----2-----2---2---2---2--
D---0-----0---0-----2-----2---2---2---2--
A---X-----X----------0-----0---X---X---X--
E---3-----3----------------------2---2---2--
in my hands, in my hands again. leave love bleedin in
my hands, in my hands again

Still Chorus

e-------------0-----------
B-------------0-----------
G---3---3---3---3---3--
D---4---4---4---4---4--
A---4---4---4---4---4--
E---2---2---2---2---2--
Love lies bleedin

Riff1

e----------------------------------------------------------
B--------------------------------------------------------
G--------------------------------------------------------
D--------------------------------------------------------
A---2-------0-------------0------2------0--------0--
E-------------------3---------------------------3------

e---------------------------------------------
B---------------------------------------------
G---7----------------------------6--7--6--
D------------------------9-------------------
A----------------9---------------------------
E---------------------------------------------
Ah hold me now I feel contagious
Am i the only place that you've left to go
She cries her life is like, some movie black and white

e----------------------------------------------------------
B---------------------------------------------------------
G---------------------------------------------------------
D---------------------------------------------------------
A---2-------0-------------0-----------------------------
E-------------------3-----------------3--2--------------
Dead actors fakin lines, over and over and over again she cries

Pre Chorus
Chorus

Riff2

e---------------------------------------------------------------------------------
B---------------------------------------------------------------------------------
G---------------------------------------------------------------------------------
D----------------------------------------------------------------------------------
A----------------------2--2--2--2------2--2--2--2--4-----5--5--5--5--4--
E---3--3--3--3--5------------------5------------------------------------------
And I wanted, and you turned away

e-------------------------------------------------------------
B-------------------------------------------------------------
G-------------------------------------------------------------
D-------------------------------------------------------------
A---5--5--5--5--7----9--9--9----------4---4---4---4--
E------------------------------------0-----2---2---2---2--
You don't remember, but I do. You never even

Solo
This is right but I think he uses a phazer and probably a synth

e---14--------------14------------------14---14--------------14-----------------------------------------------14--
B-----------12-----------------12----------------------12------------12------15-----14------11-----12----------
G--------------------------------------------------------------------------------------------------------------------------
D--------------------------------------------------------------------------------------------------------------------------
A--------------------------------------------------------------------------------------------------------------------------
E--------------------------------------------------------------------------------------------------------------------------
Tried......

e----------14-------------14-----------------------------------12--------------12--12--12--12----------14---------------14--
B---12-------------12------------12/0----12--10--10-------------10------------------------------15----------15--14--------
G-----------------------------------------------------------------------------------------------------------------------------------------
D------------------------------------------------------------------------------------------------------------------------------------------
A------------------------------------------------------------------------------------------------------------------------------------------
E------------------------------------------------------------------------------------------------------------------------------------------

e----------------14-----------------14--------------------------------12------------12---12---14---15---14--
B---14---12----------12--14------------14--------12------------------------------------------------------------
G-----------------------------------------------------------------11-----------11------------------------------------
D-----------------------------------------------------------------------------------------------------------------------
A-----------------------------------------------------------------------------------------------------------------------
E-----------------------------------------------------------------------------------------------------------------------

Pre Chorus
Chorus

Outro

e---------------------------------------------------------------------------------------------------------------
B---------------------------------------------------------------------------------------------------------------
G---6---7---7---6-----7---6--------------6---------6-----------6---7---7---6---7---6---------6-------
D-----------------------------------7---7---------7--------7------------------------------------7--------7--
A----------------------------------------------------------------------------------------------------------------
E----------------------------------------------------------------------------------------------------------------

e--------------------------------------------------------------------------------------3-----3-----2-----2---------
B--------------------------------------------------------------------------------------3-----3-----3-----3---------
G---8------------7-------------5-----------8------------7-------------5-----------0-----0-----2-----2-----2--
D---10^---------9^------------7-----------10^---------9^------------7^----------0-----0-----0-----0-----2--
A--------------------------------------------------------------------------------------X-----X-------------------0--
E--------------------------------------------------------------------------------------3-----3-----------------------
            

comments powered by Disqus
↑ Back to top | Fuel Tabs for Hemmorhage. Lyrics for acoustic guitar and electric guitar. Tablatures and chords are parodies/interpretations of the original songs. You may use it for private study, scholarship, research or language learning purposes only