» » »

Hemmorhage Tabs (ver.2)

Artists:  A B C D E F G H I J K L M N O P Q R S T U V W X Y Z # 

Hemmorhage Tabs (ver.2)

Fuel
Rating:
0/5 (0 votes)

Hard to play? Try these video lessons and learn fast.
                Fuel - Hemorrhage (In My Hands)
E-A-D-G-B-E
Chick_Magnet is the real submitter of this tab so give him the great ratings for this great tab.  However the spacing on his tab is terrible and hard to make out so this is how it should be.

Intro (let last note ring)
|---0--0----0--0--0-|
|---3--3----2--2--2-|
|---4--4----2--2--2-|
|---4--4----2--2--2-|
|---2--2----0--0--0-|
|-------------------|

|---------0---------------0-----------------0---------------0-------|
|-------3---3-----------3---3-------------3---3-----------3---3-----|
|-----0-------0-------0-------0---------0-------0-------0-------0---|
|---4---------------4-----------4-----4---------------4-----------4-|
|-2-------------0-----------------------------------0---------------|
|-----------------------------------3-------------------------------|

Pre Chorus (Don't fall away)
|-0-0---0-0-0---0-0-0-00---000-|
|-0-0---3-3-3---2-2-3-33---333-|
|-0-0---2-2-2---2-2-2-22---222-|
|-2-2---0-0-0---2-2-2-22---222-|
|-2-2-----------0-0-0-00---000-|
|-0-0--------------------------|

Chorus (In my hands)          (Love lies bleeding)
|-3---3-2------------------|  |-----------0-------|
|-3---3-3---2---2--2--2--2-|  |-----------0-------|
|-0---0-2---2---2--2--2--2-|  |-3---3---3---3---3-|
|-0---0-0---2---2--2--2--2-|  |-4---4---4---4---4-|
|-X---X-----0---0--X--X--X-|  |-4---4---4---4---4-|
|-3---3------------2--2--2-|  |-2---2---2---2---2-|

Riff1 (Ah hold me now I feel contagious)       (Dead actors fakin lines
------------------------|----------------------|-----------------------
------------------------|----------------------|-----------------------
------------------------|-7------------6--7--6-|-----------------------
------------------------|---------9------------|-----------------------
-2--0-----0--2--0-----0-|------9---------------|-2---0-------0---------
-------3-----------3----|----------------------|---------3--------3--2-

Riff2 (And I wanted, and you turned away)
|---------------------------------------------|
|---------------------------------------------|
|---------------------------------------------|
|---------------------------------------------|
|-------------2-2-2-2---2-2-2-2-4---5-5-5-5-4-|
|-3-3-3-3-5-----------5-----------------------|

(You don't remember, but I do. You never even
|----------------------------------------|
|----------------------------------------|
|----------------------------------------|
|----------------------------------------|
|-5-5-5-5-7--9-9-9-----4-4---4---4-------|
|--------------------0-----2---2---2---2-|

Solo (...Tried...)
|-14------14------14--14-------14------------------------14-
|-----12------12-----------12-------12--15--14--11--12------
|-----------------------------------------------------------
|-----------------------------------------------------------
|-----------------------------------------------------------
|-----------------------------------------------------------

|-----14------14------------------------12-------12--12--12--12------14
|-12------12------12/0---12--10--10--------10--------------------15----
|----------------------------------------------------------------------
|----------------------------------------------------------------------
|----------------------------------------------------------------------
|----------------------------------------------------------------------

--------14----------14---------14---------------12-----12-12-14-15-14-|
15--14------14-12------12-14------14----12----------------------------|
----------------------------------------------11-----11---------------|

Outro
|------------------------------------------------------------|
|------------------------------------------------------------|
|-6-7-7-6---7-6---------6-----6------6-7-7-6-7-6-----6-------|
|------------------7--7-----7-----7--------------------7---7-|
|------------------------------------------------------------|
|------------------------------------------------------------|

|---------------------------3--3--2--2-|
|---------------------------3--3--3--3-|
|-8---7--5--8---7--5--0--0--2--2--2--2-|
|-10--9--7--10--9--7--0--0--0--0--0--2-|
|---------------------------X--X-----0-|
|---------------------------3--3-------|
            
Hard to play? Try these video lessons and learn fast. | Correct




comments powered by Disqus
↑ Back to top | Tablatures and chords are parodies/interpretations of the original songs. You may use it for private study, scholarship, research or language learning purposes only