» » »

Bad Day Tabs (ver.3)

Artists:  A B C D E F G H I J K L M N O P Q R S T U V W X Y Z # 

Bad Day Tabs (ver.3)

Fuel
Rating:
0/5 (0 votes)

Hard to play? Try these video lessons and learn fast.
                here's how it's played. dont play it just like it is or it'll
come off sounding fake.  great, short song...

Intro/Verse
clean elect.(use chorus when acous. enters for rich tone)
-0-0--0-0--0-0--0-0-0-0--0-0--0-0|-0-0--0-0--0-0--0-0-0-0--0-0--0-0-|
-0h2--2-2--0-0--0-0-0h2--2-2--0-0|-0h2--2-2--0-0--0-0-0h2--2-2--0-0-|
-2-2--2-2--2-2--2-2-2-2--2-2--2-2|-2-2--2-2--2-2--2-2-2-2--2-2--2-2-|
-2-2--2-2--2-2--2-2-2-2--2-2--2-2|-2-2--2-2--2-2--2-2-2-2--2-2--2-2-|
-0-0--0-0--0-0--0-0-0-0--0-0--0-0|-0-0--0-0--0-0--0-0-0-0--0-0--0-0-|
---------------------------------|-2---------2-2--2--------2--------|
 A         Asus2                   F#/A      F#/Asus2                         

-2--2--2--2-2--2-2-0--1--1-1--1--1-1|--0-0--0-0--0-0--0-0-0-0-------|
-3--3--3--3-3--3-3-3--2--2-2--0--2-2|0-0h2--2-2--0-0--0-0-0h2-------|
-2--2--2--2-2--2-2-2--2--2-2--2--2-2|0-2-2--2-2--2-2--2-2-2-2-------|
-0--0--0--0-0--0-0-0--0--0-0--0--0-0|0-2-2--2-2--2-2--2-2-2-2-------|
------------------------------------|--0-0--0-0--0-0--0-0-0-0-------|
------------------------------------|-------------------------------|
 D                    Dm+7                                                    

Pre-Chorus
w/dist
--------------2--2-2-----|-----------------2--2-2------
-7--7/--0-----2--2-2-----|x-x-7--7/--0-----2--2-2------
-7--7/--x--2--2--2-2-----|x-x-7--7/--x--2--2--2-2------
-7--7/--2--4--4--4-4-2-2-|x-x-7--7/--2--4--4--4-4-2-2--
-5--5/--2--4--4--4-4-2-2-|----5--5/--2--4--4--4-4-2-2--
--------0--2--2--2-2-0-0-|-----------0--2--2--2-2-0-0--
 D      E5 F#m                                                                

-----------2--2--2-2-2-2-2-2-2-
-7--7--7-7-3--3--3-2-2-2-2-2h3-
-7--7--7-7-4--4--4-4-4-4-4-4-4-
-7--7--7-7-4--4--4-4-4-4-4-4-4-
-5--5--5-5-2--2--2-2-2-2-2-2-2-
-------------------------------
 
Solo:                                                                        
w/wah as filter
--------------------------|------------------------------|------------
--------------------------|------------------------------|------------
--------------------------|------------------------------|------------
-------11v----------------|-------11v--------------------|------11----
-11-12----12v-11b12r11----|-11-12-----12v-11b12r11b12r11v|11-12----12-                                                                             
-----------------------12v|------------------------------|------------
                                               (fdbk)

--------------------------|-------------------------------
--------------------------|-------------------------------
--------------------------|-------------------------------
--------------------------|-------11v--------14v----------
-11b12r11-----------------|-11-12-----12v-11--------------
----------12-12b13-12v----|-------------------------------
            
Hard to play? Try these video lessons and learn fast. | Correct




comments powered by Disqus
↑ Back to top | Tablatures and chords are parodies/interpretations of the original songs. You may use it for private study, scholarship, research or language learning purposes only