» » »

Fuel, Bad Day Bass tabs (ver.1)

Artists:  A B C D E F G H I J K L M N O P Q R S T U V W X Y Z # 

Bad Day Bass tabs (ver.1)

Fuel Tabs
Rating:
3/5 (2 votes)
Bad Day lessons Tabs too difficult? Try these video lessons and learn fast
                
BAD DAY (Bassline)





 

 

Gtr I (E A D G) - 'Staff'


  Q=88
 4/4
  Gtr I
  W          W          W          W
|----------|----------|----------|------|
|----------|----------|----------|------|
|----------|----------|----------|------|
|----------|----------|----------|------|


  W          W          W          W
|----------|----------|----------|------|
|----------|----------|----------|------|
|----------|----------|----------|------|
|----------|----------|----------|------|


  W          W          W          W
|----------|----------|----------|------|
|----------|----------|----------|------|
|----------|----------|----------|------|
|----------|----------|----------|------|


  W          W          W          W
|----------|----------|----------|------|
|----------|----------|----------|------|
|----------|----------|----------|------|
|----------|----------|----------|------|


  W          W          Q  Q  +E  E E E   +E  E Q  E E E E
|----------|----------|-----------------|------------------|
|----------|----------|-0--0--(0)-------|------------------|
|----------|----------|-----------------|--------------2-4-|
|----------|----------|-----------0---2-|-(2)-2-2--0-0-----|


  Q  Q  +E  E E E   +E  E Q  E E E E   Q  Q  E E E E   +E  E Q  +H
|-----------------|------------------|---------------|-----------------|
|-----------------|------------------|---------------|-----------------|
|-5--5--(5)-------|--------------2-4-|-5--5----------|-----------------|
|-----------0---2-|-(2)-2-2--0-0-----|---------4-5-7-|-(7)-7-7--(7)----|


  S E. E. S +E  E Q    Q  E S S E E +S  S E
|--------------------|----------------------|
|-7-9--9--9-(9)-9-9--|----------------------|
|--------------------|-0----0-----0-(0)-----|
|--------------------|--------------------0-|


  Q  E S S +E   E E E   Q  E S S E E +S  S E
|---------------------|-----------------------|
|---------------------|-----------------------|
|-0-----------------0-|-----------------------|
|--------9-(9)-10-9---|-2----2-----2-(2)---0--|


  Q  E S S +E  E E E   Q  E S S E E +S  S E   Q  E S S +E  E E E
|--------------------|----------------------|--------------------|
|--------------------|----------------------|--------------------|
|--------4-(4)-5-4---|-5----5-----5-(5)-----|-5------4-(4)-5-4---|
|-2----------------5-|--------------------5-|------------------0-|


  Q  E S S E E +S  S E   Q  E S S E E +S  S E   Q  E S S E E +S  S E
|----------------------|----------------------|----------------------|
|----------------------|----------------------|----------------------|
|----------------------|----------------------|----------------------|
|-5----5-----5-(5)---0-|-5----5-----5-(5)---0-|-5----5-----5-(5)---0-|


  Q  E S S +E  E E E   Q  E S S E E +S  S E   Q  E S S +E  E E E
|--------------------|----------------------|--------------------|
|--------------------|----------------------|--------------------|
|--------4-(4)-5-4---|----------------------|--------4-(4)-5-4---|
|-5----------------5-|-2----2-----2-(2)---0-|-2----------------5-|


  Q  E S S E E +S  S E   Q  Q  Q  Q    Q  E S S E E +S  S E
|----------------------|-------------|----------------------|
|----------------------|-------------|----------------------|
|-5----5-----5-(5)-----|-------------|-0----0-----0-(0)-----|
|--------------------0-|-1--1--3--3--|--------------------0-|


  Q  E S S E E +S  S E   Q  Q  +E  E E E   +E  E Q  E E E E   Q  Q  +E  E E E
|----------------------|-----------------|------------------|-----------------|
|----------------------|-----------------|------------------|-----------------|
|-0----0-----0-(0)---0-|-5--5--(5)-------|--------------2-4-|-5--5--(5)-------|
|----------------------|-----------0---2-|-(2)-2-2--0-0-----|-----------0---2-|


  +E  E Q  E E E E   Q  Q  E E E E   +E  E Q  +H       S E. E. S +E  E Q
|------------------|---------------|-----------------|--------------------|
|------------------|---------------|-----------------|-7-9--9--9-(9)-9-9--|
|--------------2-4-|-5--5----------|-----------------|--------------------|
|-(2)-2-2--0-0-----|---------4-5-7-|-(7)-7-7--(7)----|--------------------|


  Q  E S S E E +S  S E   Q  E S S +E   E E E   Q  E S S E E +S  S E
|----------------------|---------------------|-----------------------|
|----------------------|---------------------|-----------------------|
|-0----0-----0-(0)-----|-0-----------------0-|-----------------------|
|--------------------0-|--------9-(9)-10-9---|-2----2-----2-(2)---0--|


  Q  E S S +E  E E E   Q  E S S E E +S  S E   Q  E S S +E  E E E
|--------------------|----------------------|--------------------|
|--------------------|----------------------|--------------------|
|--------4-(4)-5-4---|-5----5-----5-(5)-----|-5------4-(4)-5-4---|
|-2----------------5-|--------------------5-|------------------0-|


  Q  E S S E E +S  S E   Q  E S S E E +S  S E   Q  E S S E E +S  S E
|----------------------|----------------------|----------------------|
|----------------------|----------------------|----------------------|
|----------------------|----------------------|----------------------|
|-5----5-----5-(5)---0-|-5----5-----5-(5)---0-|-5----5-----5-(5)---0-|


  Q  E S S +E  E E E   H    +Q   Q    W          +H     +H
|--------------------|--------------|----------|---------------|
|--------------------|--------------|----------|---------------|
|--------4-(4)-5-4---|--------------|-5--------|-(5)----(5)----|
|-5----------------5-|-7----(7)--7--|----------|---------------|


  E E E E E E E E   E E E E E E E E   E E E E E E E E   E E E E E E E E
|-----------------|-----------------|-----------------|-----------------|
|-----------------|-----------------|-----------------|-----------------|
|-----------------|---------4-5-4---|-----------------|---------4-5-4---|
|-5-5-5-5-5-5-5-5-|-5-5-5-5-------5-|-2-2-2-2-2-2-2-2-|-2-2-2-2-------5-|


                    Q=75  Q=53
  E E E E E E E E   E E E E E E E E   W          +H     +H
|-----------------|-----------------|----------|---------------*|
|-----------------|-----------------|----------|---------------*|
|-5-5-5-5-5-5-5---|-----------------|-0--------|-(0)----(0)----*|
|---------------0-|-1-1-1-1-3-3-3-3-|----------|---------------*|




--------------------------------------------------------------------------------


Duration Legend
---------------
W - whole; H - half; Q - quarter; E - 8th; S - 16th; T - 32nd; X - 64th; a - acciaccatura
+ - note tied to previous; . - note dotted; .. - note double dotted
Uncapitalized letters represent notes that are staccato (1/2 duration)
Irregular groupings are notated above the duration line
Duration letters will always appear directly above the note/fret number it represents the
duration for.  Duration letters with no fret number below them represent rests.  Multi-
bar rests are notated in the form Wxn, where n is the number of bars to rest for.  Low
melody durations appear below the staff

Tablature Legend
----------------
 h   - hammer-on
 p   - pull-off
 b   - bend
 pb  - pre-bend
 r   - bend release (if no number after the r, then release immediately)
 /\  - slide into or out of (from/to "nowhere")
 s   - legato slide
 S   - shift slide
 - natural harmonic
[n]  - artificial harmonic
n(n) - tapped harmonic
 ~   - vibrato
 tr  - trill
 T   - tap
 TP  - trem. picking
 PM  - palm muting
\n/  - tremolo bar dip; n = amount to dip
 \n  - tremolo bar down
 n/  - tremolo bar up
/n\  - tremolo bar inverted dip
 =   - hold bend; also acts as connecting device for hammers/pulls
 <> - volume swell (louder/softer)
 x   - on rhythm slash represents muted slash
 o   - on rhythm slash represents single note slash

Misc Legend
-----------
 |  - bar
||  - double bar
||o - repeat start
o|| - repeat end
*|  - double bar (ending)
 :  - bar (freetime)
 $  - Segno
 &  - Coda
Tempo markers -  = BPM(8/16=s8/s16), where s8 = swing 8ths, s16 = swing 16ths



--------------------------------------------------------------------------------
            

comments powered by Disqus
↑ Back to top | Fuel Bass for Bad Day. Lyrics for acoustic guitar and electric guitar. Tablatures and chords are parodies/interpretations of the original songs. You may use it for private study, scholarship, research or language learning purposes only