» » »

Wasting Time (Eternal Summer) Tabs (ver.1)

Artists:  A B C D E F G H I J K L M N O P Q R S T U V W X Y Z # 

Wasting Time (Eternal Summer) Tabs (ver.1)

Four Year Strong
Rating:
0/5 (0 votes)

Hard to play? Try these video lessons and learn fast.
                
Tuning: One step down (D-G-C-F-A-D)

INTRO

D|---------------------------------|---------------------------------|
A|---------------------------------|---------------------------------|
F|---------------------------------|---------------------------------|
C|---------------------------------|---------------------------------|
G|---------------------------------|---------------------------------|
D|-3-3-3-3-3-3-3-3-3-3-3-3-3-3-3-3-|-3-3-3-3-3-3-3-3-3-3-3-3-3-3-3-3-|

D|---------------------------------|---------------------------------|
A|---------------------------------|---------------------------------|
F|---------------------------------|---------------------------------|
C|---------------------------------|---------------------------------|
G|---------------------------------|---------------------------------|
D|-3-3-3-3-3-3-3-3-3-3-3-3-3-3-3-3-|-3-3-3-3-3-3-3-3-3-3-3-3-3-3-3-3-|

VERSE 1

D|---------------------------------|---------------------------------|
A|---------------------------------|---------------------------------|
F|---------------------------------|---------------------------------|
C|---------------------------------|---------------------------------|
G|---------------------------------|---------------------------------|
D|-3-3-3-3-3-3-3-3-3-3-3-3-3-3-3-3-|-3-3-3-3-3-3-3-3-3-3-3-3-3-3-3-3-|

D|---------------------------------|---------------------------------|
A|---------------------------------|---------------------------------|
F|---------------------------------|---------------------------------|
C|---------------------------------|---------------------------------|
G|-3-3-3-3-3-3-3-3-3-3-3-3-3-3-3-3-|-3-3-3-3-3-3-3-3-3-3-3-3-3-3-3-3-|
D|---------------------------------|---------------------------------|

D|---------------------------------|---------------------------------|
A|---------------------------------|---------------------------------|
F|---------------------------------|---------------------------------|
C|---------------------------------|---------------------------------|
G|-0-0-0-0-0-0-0-0-0-0-0-0-0-0-0-0-|-0-0-0-0-0-0-0-0-0-0-0-0-0-0-0-0-|
D|---------------------------------|---------------------------------|

D|---------------------------------|---------------------------------|
A|---------------------------------|---------------------------------|
F|---------------------------------|---------------------------------|
C|---------------------------------|---------------------------------|
G|---------------------------------|---------------------------------|
D|-3-3-3-3-3-3-3-3-3-3-3-3-3-3-3-3-|-3-3-3-3-3-3-3-3-3-3-3-3-3-3-3-3-|

D|---------------------------------|---------------------------------|
A|---------------------------------|---------------------------------|
F|---------------------------------|---------------------------------|
C|---------------------------------|---------------------------------|
G|---------------------------------|---------------------------------|
D|-3-3-3-3-3-3-3-3-3-3-3-3-3-3-3-3-|-3-3-3-3-3-3-3-3-3-3-3-3-3-3-3-3-|

D|---------------------------------|---------------------------------|
A|---------------------------------|---------------------------------|
F|---------------------------------|---------------------------------|
C|---------------------------------|---------------------------------|
G|-3-3-3-3-3-3-3-3-3-3-3-3-3-3-3-3-|-3-3-3-3-3-3-3-3-3-3-3-3-3-3-3-3-|
D|---------------------------------|---------------------------------|

D|---------------------------------|---------------------------------|
A|---------------------------------|---------------------------------|
F|---------------------------------|---------------------------------|
C|---------------------------------|---------------------------------|
G|-0-0-0-0-0-0-0-0-0-0-0-0-0-0-0-0-|-0-0-0-0-0-0-0-0-0-0-0-0-0-0-0-0-|
D|---------------------------------|---------------------------------|

D|---------------------------------|---------------------------------|----|
A|---------------------------------|---------------------------------|----|
F|---------------------------------|---------------------------------|-9~-|
C|---------------------------------|---------------------------------|-9~-|
G|-3-3-3-3-3-3-3-3-3-3-3-3-3-3-3-3-|-5-5-5-5-5-5-5-5-5-5-5-5-5-5-5-5-|-7~-|
D|---------------------------------|---------------------------------|----|

CHORUS 1

D|------------------------|------------------------|
A|------------------------|------------------------|
F|------------------------|------------------------|
C|-5--5-5--5---5--5-5-5-5-|-5--5-5--5---5--5-5-5-5-|
G|-5--5-5--5---5--5-5-5-5-|-5--5-5--5---5--5-5-5-5-|
D|-3--3-3--3---3--3-3-3-3-|-3--3-3--3---3--3-3-3-3-|

D|------------------------|------------------------|
A|------------------------|------------------------|
F|------------------------|-5--5--5--5--5--5--5--5-|
C|-2--2--2--2--2--2--2--2-|-5--5--5--5--5--5--5--5-|
G|-2--2--2--2--2--2--2--2-|-3--3--3--3--3--3--3--3-|
D|-0--0--0--0--0--0--0--0-|------------------------|

D|------------------------|------------------------|
A|------------------------|------------------------|
F|------------------------|------------------------|
C|-7--7--7--7--7--7--7--7-|-7--7--7--7--7----------|
G|-7--7--7--7--7--7--7--7-|-7--7--7--7--7----------|
D|-5--5--5--5--5--5--5--5-|-5--5--5--5--5----------|
PM --------------------------------------|

POST-CHORUS

D|---------------------------------|---------------------------------|
A|---------------------------------|---------------------------------|
F|---------------------------------|---------------------------------|
C|---------------------------------|---------------------------------|
G|---------------------------------|---------------------------------|
D|-3-3-3-3-3-3-3-3-3-3-3-3-3-3-3-3-|-3-3-3-3-3-3-3-3-3-3-3-3-3-3-3-3-|

D|---------------------------------|---------------------------------|
A|---------------------------------|---------------------------------|
F|---------------------------------|---------------------------------|
C|---------------------------------|---------------------X-X-X-X-----|
G|---------------------------------|---------------------X-X-X-X-----|
D|-3-3-3-3-3-3-3-3-3-3-3-3-3-3-3-3-|-3-3-3-3-3-3-3-3-3-3-X-X-X-X-----|

VERSE 2

D|---------------------------------|---------------------------------|
A|---------------------------------|---------------------------------|
F|---------------------------------|---------------------------------|
C|---------------------------------|---------------------------------|
G|---------------------------------|---------------------------------|
D|-3-3-3-3-3-3-3-3-3-3-3-3-3-3-3-3-|-3-3-3-3-3-3-3-3-3-3-3-3-3-3-3-3-|

D|---------------------------------|---------------------------------|
A|---------------------------------|---------------------------------|
F|---------------------------------|---------------------------------|
C|---------------------------------|---------------------------------|
G|-3-3-3-3-3-3-3-3-3-3-3-3-3-3-3-3-|-3-3-3-3-3-3-3-3-3-3-3-3-3-3-3-3-|
D|---------------------------------|---------------------------------|

D|---------------------------------|---------------------------------|
A|---------------------------------|---------------------------------|
F|---------------------------------|---------------------------------|
C|---------------------------------|---------------------------------|
G|-0-0-0-0-0-0-0-0-0-0-0-0-0-0-0-0-|-0-0-0-0-0-0-0-0-0-0-0-0-0-0-0-0-|
D|---------------------------------|---------------------------------|

D|---------------------------------|---------------------------------|
A|---------------------------------|---------------------------------|
F|---------------------------------|---------------------------------|
C|---------------------------------|---------------------------------|
G|---------------------------------|---------------------------------|
D|-3-3-3-3-3-3-3-3-3-3-3-3-3-3-3-3-|-3-3-3-3-3-3-3-3-3-3-3-3-3-3-3-3-|


D|-----------------|-----------------|-----------------|-----------------|
A|---8-7---8-7---8-|---7-5---7-5---7-|---5-3---5-3---3-|---5-3---5-3---3-|
F|-----------------|-----------------|-5-----5-----5---|-5-----5-----5---|
C|-5-----5-----5---|-5-----5-----5---|-----------------|-----------------|
G|-----------------|-----------------|-----------------|-----------------|
D|-----------------|-----------------|-----------------|-----------------|
PM ----------------------------------------------------------------------|

D|-----------------|-----------------|-----------------|-----------------|----|
A|---8-7---8-7---8-|---7-5---7-5---7-|---5-3---5-3---3-|---5-3---5-3---3-|----|
F|-----------------|-----------------|-----------------|-----------------|-9~-|
C|-7-----7-----7---|-7-----7-----7---|-5-----5-----5---|-5-----5-----5---|-9~-|
G|-----------------|-----------------|-----------------|-----------------|-7~-|
D|-----------------|-----------------|-----------------|-----------------|----|
PM ----------------------------------------------------------------------|

CHORUS 2

D|------------------------|------------------------|
A|------------------------|------------------------|
F|------------------------|------------------------|
C|-5--5-5--5---5--5-5-5-5-|-5--5-5--5---5--5-5-5-5-|
G|-5--5-5--5---5--5-5-5-5-|-5--5-5--5---5--5-5-5-5-|
D|-3--3-3--3---3--3-3-3-3-|-3--3-3--3---3--3-3-3-3-|

D|------------------------|------------------------|
A|------------------------|------------------------|
F|------------------------|-5--5--5--5--5--5--5--5-|
C|-2--2--2--2--2--2--2--2-|-5--5--5--5--5--5--5--5-|
G|-2--2--2--2--2--2--2--2-|-3--3--3--3--3--3--3--3-|
D|-0--0--0--0--0--0--0--0-|------------------------|

D|------------------------|------------------------|
A|------------------------|------------------------|
F|------------------------|------------------------|
C|-7--7--7--7--7--7--7--7-|-7--7--7--7--X--X--X--X-|
G|-7--7--7--7--7--7--7--7-|-7--7--7--7--X--X--X--X-|
D|-5--5--5--5--5--5--5--5-|-5--5--5--5--X--X--X--X-|
PM -----------------------------------|


BRIDGE

D|------------------------|------------------------|
A|------------------------|------------------------|
F|-5--5--5--5--5--5--5--5-|-7--7--7--7--7--7--7--7-|
C|-5--5--5--5--5--5--5--5-|-7--7--7--7--7--7--7--7-|
G|-3--3--3--3--3--3--3--3-|-5--5--5--5--5--5--5--5-|
D|------------------------|------------------------|

D|------------------------|------------------------|
A|------------------------|------------------------|
F|------------------------|-4--4--4--4--4--4--4--4-|
C|-2--2--2--2--2--2--2--2-|-4--4--4--4--4--4--4--4-|
G|-2--2--2--2--2--2--2--2-|-2--2--2--2--2--2--2--2-|
D|-0--0--0--0--0--0--0--0-|------------------------|

D|------------------------|------------------------|
A|------------------------|------------------------|
F|-5--5--5--5--5--5--5--5-|-7--7--7--7--7--7--X--X-|
C|-5--5--5--5--5--5--5--5-|-7--7--7--7--7--7--X--X-|
G|-3--3--3--3--3--3--3--3-|-5--5--5--5--5--5--X--X-|
D|------------------------|------------------------|

D|------------------------|------------------------|
A|------------------------|------------------------|
F|------------------------|-4--4--4--4--4--4--4--4-|
C|-2--2--2--2--2--2--2--2-|-4--4--4--4--4--4--4--4-|
G|-2--2--2--2--2--2--2--2-|-2--2--2--2--2--2--2--2-|
D|-0--0--0--0--0--0--0--0-|------------------------|

D|------------------------|------------------------|
A|------------------------|------------------------|
F|-5--5--5--5--5--5--5--5-|-7----------------------|
C|-5--5--5--5--5--5--5--5-|-7----------------------|
G|-3--3--3--3--3--3--3--3-|-5----------------------|
D|------------------------|------------------------|

D|---------------------------------|---------------------------------|
A|---------------------------------|---------------------------------|
F|---------------------------------|---------------------------------|
C|---------------------------------|---------------------------------|
G|---------------------------------|---------------------------------|
D|-3-3-3-3-3-3-3-3-3-3-3-3-3-3-3-3-|-3-3-3-3-3-3-3-3-3-3-3-3-3-3-3-3-|

D|---------------------------------|---------------------------------|
A|---------------------------------|---------------------------------|
F|---------------------------------|---------------------------------|
C|---------------------------------|-5~------------------------------|
G|---------------------------------|-5~------------------------------|
D|-3-3-3-3-3-3-3-3-3-3-3-3-3-3-3-3-|-3~------------------------------|





OUTRO

D|-X-X-|------------------------|------------------------|
A|-X-X-|------------------------|------------------------|
F|-X-X-|------------------------|------------------------|
C|-X-X-|-5--5--5--5--5--5--5--5-|-5--5--5--5--5--5--5--5-|
G|-X-X-|-5--5--5--5--5--5--5--5-|-5--5--5--5--5--5--5--5-|
D|-X-X-|-3--3--3--3--3--3--3--3-|-3--3--3--3--3--3--3--3-|

D|------------------------|------------------------|
A|------------------------|------------------------|
F|-5--5--5--5--5--5--5--5-|-5--5--5--5--5--5--5--5-|
C|-5--5--5--5--5--5--5--5-|-5--5--5--5--5--5--5--5-|
G|-3--3--3--3--3--3--3--3-|-3--3--3--3--3--3--3--3-|
D|------------------------|------------------------|

D|------------------------|------------------------|
A|------------------------|------------------------|
F|------------------------|------------------------|
C|-7--7--7--7--7--7--7--7-|-7--7--7--7--7--7--7--7-|
G|-7--7--7--7--7--7--7--7-|-7--7--7--7--7--7--7--7-|
D|-5--5--5--5--5--5--5--5-|-5--5--5--5--5--5--5--5-|

D|------------------------|------------------------|
A|------------------------|------------------------|
F|------------------------|------------------------|
C|-5--5--5--5--5--5--5--5-|-5--5--5--5--X--X--X--5-|
G|-5--5--5--5--5--5--5--5-|-5--5--5--5--X--X--X--5-|
D|-3--3--3--3--3--3--3--3-|-3--3--3--3--X--X--X--3-|

D|------------------------|------------------------|
A|------------------------|------------------------|
F|------------------------|------------------------|
C|-5--5--5--5--5--5--5--5-|-5--5--5--5--5--5--5--5-|
G|-5--5--5--5--5--5--5--5-|-5--5--5--5--5--5--5--5-|
D|-3--3--3--3--3--3--3--3-|-3--3--3--3--3--3--3--3-|

D|------------------------|------------------------|
A|------------------------|------------------------|
F|-5--5--5--5--5--5--5--5-|-5--5--5--5--5--5--5--5-|
C|-5--5--5--5--5--5--5--5-|-5--5--5--5--5--5--5--5-|
G|-3--3--3--3--3--3--3--3-|-3--3--3--3--3--3--3--3-|
D|------------------------|------------------------|

D|------------------------|------------------------|
A|------------------------|------------------------|
F|------------------------|------------------------|
C|-7--7--7--7--7--7--7--7-|-7--7--7--7--7--7--7--7-|
G|-7--7--7--7--7--7--7--7-|-7--7--7--7--7--7--7--7-|
D|-5--5--5--5--5--5--5--5-|-5--5--5--5--5--5--5--5-|

D|------------------------|------------------------|----|
A|------------------------|------------------------|----|
F|-5--5--5--5--5--5--5--5-|-7--7--7--7--7--7--7--7-|----|
C|-5--5--5--5--5--5--5--5-|-7--7--7--7--7--7--7--7-|-5~-|
G|-3--3--3--3--3--3--3--3-|-5--5--5--5--5--5--5--5-|-5~-|
D|------------------------|------------------------|-3~-|

***************************************

| X                Mute note / Dead note
| PM ----|         Palm mute
| ~                Let ring

***************************************
            
Hard to play? Try these video lessons and learn fast. | Correct




comments powered by Disqus
↑ Back to top | Tablatures and chords are parodies/interpretations of the original songs. You may use it for private study, scholarship, research or language learning purposes only