» » »

Four Year Strong, Men Are From Mars Women Are From Hell Bass tabs (ver.1)

Artists:  A B C D E F G H I J K L M N O P Q R S T U V W X Y Z # 

Men Are From Mars Women Are From Hell Bass tabs (ver.1)

Four Year Strong Tabs
 Rating:
4/5 (4 votes)
Men Are From Mars Women Are From Hell lessons Tabs too difficult? Try these video lessons and learn fast
                f**king awesome song by a f**king awesome band.
pretty fast and not soo easy.

it's not 100% right, but it sounds very good i think.

intro
G|-----------------|
D|-----------------|  x1
A|-----------------|
D|-000000000000000-|

G|----------------------------------|
D|----------------------------------|  x1
A|--------------------------------5-|
D|-0-0-00000-777-999-999-999-57545--|

G|------------------------------------|
D|------------------------------------|  x1
A|------------------------------------|
D|-0-0-00000-777-999-999-999-05-0507--|

G|----------------------------------|
D|----------------------------------|  x2
A|--------------------------------5-|
D|-0-0-00000-777-999-999-999-57545--|

verse1
G|---------------|
D|---------------|  x1
A|-----5---------|
D|-0507--0~~~~~~~|

G|--------------------|
D|--------------------|  x1
A|-----5--------------|
D|-0507--00-0-0-0-0-0-|

pre chorus
G|----------------------------------------------------------------|
D|----------------------------------------------------------------|  x1
A|----------------------------------------------------------------|
D|-5-05-7-99-777--5-05-7-99--77--5-05-7-99-777--5-0555555-7777777-|

chorus
G|------------------------------------|
D|------------------------------------|  x1
A|------------------------------------|
D|-9-9979-7-7-7-777--2-2202-0-0-0-000-|

G|------------------------------------|
D|------------------------------------|  x1
A|------------------------------------|
D|-9-9979-7-7-7-777--5555555555555555-|

G|------------------------------------|
D|------------------------------------|  x1
A|------------------------------------|
D|-9-9979-7-7-7-777--2-2202-0-0-0-000-|

G|---------------------------------------------|
D|---------------------------------------------|  x1
A|---------------------------------------------|
D|-9-9979-7-7-7-777--5-5-7-7-9-9-4-4-5-5-7-7-9-|

then intro riff again
G|----------------------------------|
D|----------------------------------|  x1
A|--------------------------------5-|
D|-0-0-00000-777-999-999-999-57545--|

G|-------------------------------------|
D|-------------------------------------|  x1
A|-------------------------------------|
D|-0-0-00000-777-999-999-999-05-00000--|

G|----------------------------------|
D|----------------------------------|  x2
A|--------------------------------5-|
D|-0-0-00000-777-999-999-999-57545--|

verse2
G|------------------------------------------------------------|
D|------------------------------------------------------------|  x1
A|------------------------------------------------------------|
D|-0509757-0~~~~9~~7~~~~0~~~~4x-5x-7x-5x-45-99-999-9999-7-7-7-|

short pause then:

half time (play very fast)
G|---------------------------------|
D|---------------------------------|  x1
A|---------------------------------|
D|-0000-0-0000-653-000000-0000-234-|

G|---------------------------------|
D|---------------------------------|  x1
A|---------------------------------|
D|-00-00-00-00-653-000000-0000-234-|

G|---------------------------------|
D|---------------------------------|  x1
A|---------------------------------|
D|-0000-0-0000-653-000000-0000-234-|

G|---------------------------------|
D|---------------------------------|  x1
A|---------------------------------|
D|-00-00-00-00-653-000000-0000-234-|

bass makes short break,then:

pre chorus
G|-------------------------------------|
D|-------------------------------------|  x1
A|-------------------------------------|
D|-00-5-05-7-99-777--5-0555555-7777777-|

chorus
G|------------------------|
D|------------------------|  x1
A|------------------------|
D|-9-9979-7x----2-2202-0x-|

G|-------------------------------|
D|-------------------------------|  x1
A|-------------------------------|
D|-9-9979-7x----5555555555555555-|

G|------------------------------------|
D|------------------------------------|  x1
A|------------------------------------|
D|-9-9979-7-7-7-777--2-2202-0-0-0-000-|

G|------------------------------------|
D|------------------------------------|  x1
A|------------------------------------|
D|-9-9979-7-7-7-777--5555555555555555-|

G|------------------------------------|
D|------------------------------------|  x1
A|------------------------------------|
D|-9-9979-7-7-7-777--2-2202-0-0-0-000-|

G|---------------------------------------------|
D|---------------------------------------------|  x1
A|---------------------------------------------|
D|-9-9979-7-7-7-777--5-5-7-7-9-9-4-4-5-5-7-7-9-|

end
G|-------------|
D|-------------|  x1
A|-------------|
D|-9-9999999~~~-|

have fun.
            
Submit corrections

comments powered by Disqus
↑ Back to top | Four Year Strong Bass for Men Are From Mars Women Are From Hell. Lyrics for acoustic guitar and electric guitar. Tablatures and chords are parodies/interpretations of the original songs. You may use it for private study, scholarship, research or language learning purposes only