» » »

Snails Tabs (ver.2)

Artists:  A B C D E F G H I J K L M N O P Q R S T U V W X Y Z # 

Snails Tabs (ver.2)

Format
Rating:
4/5 (1 vote)

Hard to play? Try these video lessons and learn fast.
                something like this. sounds good.

INTRO
e|----1-------1---------1---1---1---1--|---|
b|----1-------1---------1---1---1---1--|---|
g|-------------------------------------|---|
d|--3-----3-2------3-------------------|---|
a|------3--------3----0---3---0--------|---|
e|--------------------------------3----|-1-|

VERSE
e|---1--1--1--1--1--1-------------|----------1--1--1--1------------|
b|---1--1--1--1--1--1-------------|----------1--1--1--1------------|
g|--------------------------------|-------------------------2-0----|
d|--3--2--0-----------------0-2---|--3-2----0-------------------3--|
a|-----------3--1--0------3-------|------3-----0--1--3--3----------|
e|--------------------3-----------|--------------------------------|
            
Hard to play? Try these video lessons and learn fast. | Correct




comments powered by Disqus
↑ Back to top | Tablatures and chords are parodies/interpretations of the original songs. You may use it for private study, scholarship, research or language learning purposes only